ISO-10303-21;
HEADER;
FILE_DESCRIPTION (( 'STEP AP203' ),
    '1' );
FILE_NAME ('321384.step',
    '2021-11-26T10:03:15',
    ( '' ),
    ( '' ),
    'SwSTEP 2.0',
    'SolidWorks 2019',
    '' );
FILE_SCHEMA (( 'CONFIG_CONTROL_DESIGN' ));
ENDSEC;

DATA;
#1 = DIRECTION ( 'NONE',  ( -3.491481338843133355E-15, 9.031770143711729009E-17, -1.000000000000000000 ) ) ;
#2 = APPROVAL ( #138, 'UNSPECIFIED' ) ;
#3 = CARTESIAN_POINT ( 'NONE',  ( 2.793185071074506684E-13, -7.225416114969383207E-15, 80.00000000000000000 ) ) ;
#4 = LOCAL_TIME ( 11, 3, 15.00000000000000000, #136 ) ;
#5 = FACE_OUTER_BOUND ( 'NONE', #154, .T. ) ;
#6 = PERSON ( 'UNSPECIFIED', 'UNSPECIFIED', 'UNSPECIFIED', ('UNSPECIFIED'), ('UNSPECIFIED'), ('UNSPECIFIED') ) ;
#7 = DIRECTION ( 'NONE',  ( -3.491481338843133355E-15, -4.921375516753508349E-16, -1.000000000000000000 ) ) ;
#8 = VERTEX_POINT ( 'NONE', #162 ) ;
#9 = COORDINATED_UNIVERSAL_TIME_OFFSET ( 1, 0, .AHEAD. ) ;
#10 = LOCAL_TIME ( 11, 3, 15.00000000000000000, #9 ) ;
#11 = PLANE ( 'NONE',  #151 ) ;
#12 = DATE_TIME_ROLE ( 'creation_date' ) ;
#13 = ORIENTED_EDGE ( 'NONE', *, *, #90, .T. ) ;
#14 = APPROVAL_PERSON_ORGANIZATION ( #47, #109, #181 ) ;
#15 = CC_DESIGN_PERSON_AND_ORGANIZATION_ASSIGNMENT ( #200, #144, ( #163 ) ) ;
#16 = EDGE_LOOP ( 'NONE', ( #171 ) ) ;
#17 = CIRCLE ( 'NONE', #225, 2.173059892324148645 ) ;
#18 = DIRECTION ( 'NONE',  ( -1.718289077818435769E-30, 1.000000000000000000, -4.921375516753509336E-16 ) ) ;
#19 = DIRECTION ( 'NONE',  ( -3.491481338843133355E-15, -4.921375516753508349E-16, -1.000000000000000000 ) ) ;
#20 = DIRECTION ( 'NONE',  ( 3.153425691349006731E-31, 1.000000000000000000, 9.031770143711729009E-17 ) ) ;
#21 = CARTESIAN_POINT ( 'NONE',  ( 2.779219145719134403E-13, -7.189289034394536528E-15, 79.60000000000000853 ) ) ;
#22 = FACE_OUTER_BOUND ( 'NONE', #76, .T. ) ;
#23 = DIRECTION ( 'NONE',  ( 1.718289077818435769E-30, -1.000000000000000000, 4.921375516753508349E-16 ) ) ;
#24 = ADVANCED_FACE ( 'NONE', ( #196 ), #40, .T. ) ;
#25 = DIRECTION ( 'NONE',  ( -3.491481338843133355E-15, 9.031770143711729009E-17, -1.000000000000000000 ) ) ;
#26 = ADVANCED_BREP_SHAPE_REPRESENTATION ( '321384', ( #149, #58, #179 ), #199 ) ;
#27 = DIRECTION ( 'NONE',  ( 1.000000000000000000, 0.0000000000000000000, 0.0000000000000000000 ) ) ;
#28 = AXIS2_PLACEMENT_3D ( 'NONE', #231, #1, #174 ) ;
#29 = DATE_AND_TIME ( #164, #10 ) ;
#30 = ADVANCED_FACE ( 'NONE', ( #173, #60 ), #48, .T. ) ;
#31 = EDGE_LOOP ( 'NONE', ( #78 ) ) ;
#32 = CALENDAR_DATE ( 2021, 26, 11 ) ;
#33 = APPROVAL_ROLE ( '' ) ;
#34 = CC_DESIGN_SECURITY_CLASSIFICATION ( #183, ( #157 ) ) ;
#35 = CALENDAR_DATE ( 2021, 26, 11 ) ;
#36 = DIRECTION ( 'NONE',  ( 3.491481338843133355E-15, -9.031770143711729009E-17, 1.000000000000000000 ) ) ;
#37 = UNCERTAINTY_MEASURE_WITH_UNIT (LENGTH_MEASURE( 1.000000000000000082E-05 ), #238, 'distance_accuracy_value', 'NONE');
#38 = FACE_OUTER_BOUND ( 'NONE', #156, .T. ) ;
#39 = FACE_BOUND ( 'NONE', #206, .T. ) ;
#40 = PLANE ( 'NONE',  #52 ) ;
#41 = CLOSED_SHELL ( 'NONE', ( #194, #161, #30, #24 ) ) ;
#42 = CC_DESIGN_APPROVAL ( #2, ( #157 ) ) ;
#43 = DIRECTION ( 'NONE',  ( -3.491481338843133355E-15, 9.031770143711729009E-17, -1.000000000000000000 ) ) ;
#44 = APPLICATION_CONTEXT ( 'configuration controlled 3d designs of mechanical parts and assemblies' ) ;
#45 = CARTESIAN_POINT ( 'NONE',  ( 4.640915367824364429E-14, 2.403999999999998138, 13.29210990244640378 ) ) ;
#46 = CARTESIAN_POINT ( 'NONE',  ( 2.779219145719134403E-13, 1.999999999999988010, 79.60000000000000853 ) ) ;
#47 = PERSON_AND_ORGANIZATION ( #6, #92 ) ;
#48 = CONICAL_SURFACE ( 'NONE', #134, 2.173059892324148645, 0.5235987755982979275 ) ;
#49 = DIRECTION ( 'NONE',  ( 3.153425691349006731E-31, 1.000000000000000000, 9.031770143711729009E-17 ) ) ;
#50 = DIRECTION ( 'NONE',  ( 0.0000000000000000000, 0.0000000000000000000, 1.000000000000000000 ) ) ;
#51 = DATE_AND_TIME ( #75, #211 ) ;
#52 = AXIS2_PLACEMENT_3D ( 'NONE', #139, #127, #98 ) ;
#53 = AXIS2_PLACEMENT_3D ( 'NONE', #99, #101, #18 ) ;
#54 = PERSON_AND_ORGANIZATION ( #6, #92 ) ;
#55 = PERSON_AND_ORGANIZATION ( #6, #92 ) ;
#56 = EDGE_LOOP ( 'NONE', ( #195 ) ) ;
#57 = APPLICATION_CONTEXT ( 'configuration controlled 3d designs of mechanical parts and assemblies' ) ;
#58 = MANIFOLD_SOLID_BREP ( 'Corps-Déplacer/Copier1[2]', #41 ) ;
#59 = DESIGN_CONTEXT ( 'detailed design', #57, 'design' ) ;
#60 = FACE_BOUND ( 'NONE', #119, .T. ) ;
#61 = FACE_BOUND ( 'NONE', #137, .T. ) ;
#62 = DIRECTION ( 'NONE',  ( -2.563633869400655747E-30, 1.000000000000000000, -7.215987836841985019E-16 ) ) ;
#63 = DIRECTION ( 'NONE',  ( -3.491481338843133355E-15, -4.921375516753508349E-16, -1.000000000000000000 ) ) ;
#64 = ADVANCED_FACE ( 'NONE', ( #39, #158 ), #189, .T. ) ;
#65 = CARTESIAN_POINT ( 'NONE',  ( 3.733945078425890757E-30, 5.263137363912185729E-31, 1.069444375052308065E-15 ) ) ;
#66 = EDGE_CURVE ( 'NONE', #178, #178, #17, .T. ) ;
#67 = DIRECTION ( 'NONE',  ( -3.491481338843133355E-15, 9.031770143711729009E-17, -1.000000000000000000 ) ) ;
#68 = VERTEX_POINT ( 'NONE', #133 ) ;
#69 = PLANE ( 'NONE',  #222 ) ;
#70 = PERSON_AND_ORGANIZATION ( #6, #92 ) ;
#71 = ORIENTED_EDGE ( 'NONE', *, *, #217, .T. ) ;
#72 = CC_DESIGN_APPROVAL ( #109, ( #155 ) ) ;
#73 = EDGE_CURVE ( 'NONE', #132, #132, #234, .T. ) ;
#74 = PERSON_AND_ORGANIZATION ( #6, #92 ) ;
#75 = CALENDAR_DATE ( 2021, 26, 11 ) ;
#76 = EDGE_LOOP ( 'NONE', ( #125 ) ) ;
#77 = DATE_TIME_ROLE ( 'classification_date' ) ;
#78 = ORIENTED_EDGE ( 'NONE', *, *, #66, .T. ) ;
#79 = CC_DESIGN_APPROVAL ( #100, ( #183 ) ) ;
#80 = EDGE_LOOP ( 'NONE', ( #226 ) ) ;
#81 = ADVANCED_FACE ( 'NONE', ( #5 ), #83, .T. ) ;
#82 = DIRECTION ( 'NONE',  ( 3.491481338843133355E-15, 4.921375516753508349E-16, 1.000000000000000000 ) ) ;
#83 = PLANE ( 'NONE',  #229 ) ;
#84 = APPROVAL_PERSON_ORGANIZATION ( #70, #2, #170 ) ;
#85 = ADVANCED_FACE ( 'NONE', ( #61, #124 ), #235, .T. ) ;
#86 = FACE_OUTER_BOUND ( 'NONE', #95, .T. ) ;
#87 = CARTESIAN_POINT ( 'NONE',  ( 3.733945078425890757E-30, 5.263137363912185729E-31, 1.069444375052308065E-15 ) ) ;
#88 = CIRCLE ( 'NONE', #122, 1.599999999999994982 ) ;
#89 = DIRECTION ( 'NONE',  ( 3.491481338843133355E-15, 4.921375516753508349E-16, 1.000000000000000000 ) ) ;
#90 = EDGE_CURVE ( 'NONE', #93, #93, #165, .T. ) ;
#91 = CARTESIAN_POINT ( 'NONE',  ( 0.0000000000000000000, 0.0000000000000000000, 0.0000000000000000000 ) ) ;
#92 = ORGANIZATION ( 'UNSPECIFIED', 'UNSPECIFIED', '' ) ;
#93 = VERTEX_POINT ( 'NONE', #203 ) ;
#94 = APPROVAL_DATE_TIME ( #185, #2 ) ;
#95 = EDGE_LOOP ( 'NONE', ( #120 ) ) ;
#96 = AXIS2_PLACEMENT_3D ( 'NONE', #21, #176, #104 ) ;
#97 = LOCAL_TIME ( 11, 3, 15.00000000000000000, #148 ) ;
#98 = DIRECTION ( 'NONE',  ( -1.718289077818435769E-30, 1.000000000000000000, -4.921375516753508349E-16 ) ) ;
#99 = CARTESIAN_POINT ( 'NONE',  ( 0.0000000000000000000, 0.0000000000000000000, 0.0000000000000000000 ) ) ;
#100 = APPROVAL ( #205, 'UNSPECIFIED' ) ;
#101 = DIRECTION ( 'NONE',  ( -3.491481338843133355E-15, -4.921375516753508349E-16, -1.000000000000000000 ) ) ;
#102 = AXIS2_PLACEMENT_3D ( 'NONE', #212, #19, #62 ) ;
#103 = DIRECTION ( 'NONE',  ( 1.718289077818435769E-30, -1.000000000000000000, 4.921375516753508349E-16 ) ) ;
#104 = DIRECTION ( 'NONE',  ( 0.0000000000000000000, 1.000000000000000000, 0.0000000000000000000 ) ) ;
#105 = CARTESIAN_POINT ( 'NONE',  ( 2.793185071074506684E-13, -7.225416114969383207E-15, 80.00000000000000000 ) ) ;
#106 = PRODUCT_DEFINITION_SHAPE ( 'NONE', 'NONE',  #155 ) ;
#107 = APPROVAL_PERSON_ORGANIZATION ( #55, #100, #33 ) ;
#108 = DIRECTION ( 'NONE',  ( -3.491481338843133355E-15, 9.031770143711729009E-17, -1.000000000000000000 ) ) ;
#109 = APPROVAL ( #130, 'UNSPECIFIED' ) ;
#110 = MECHANICAL_CONTEXT ( 'NONE', #44, 'mechanical' ) ;
#111 = APPROVAL_DATE_TIME ( #29, #109 ) ;
#112 = EDGE_LOOP ( 'NONE', ( #198 ) ) ;
#113 = CC_DESIGN_PERSON_AND_ORGANIZATION_ASSIGNMENT ( #54, #187, ( #155 ) ) ;
#114 = PERSON_AND_ORGANIZATION_ROLE ( 'creator' ) ;
#115 = ORIENTED_EDGE ( 'NONE', *, *, #66, .F. ) ;
#116 = ORIENTED_EDGE ( 'NONE', *, *, #217, .F. ) ;
#117 = AXIS2_PLACEMENT_3D ( 'NONE', #159, #140, #230 ) ;
#118 = SHAPE_DEFINITION_REPRESENTATION ( #106, #26 ) ;
#119 = EDGE_LOOP ( 'NONE', ( #115 ) ) ;
#120 = ORIENTED_EDGE ( 'NONE', *, *, #73, .T. ) ;
#121 = CARTESIAN_POINT ( 'NONE',  ( 4.640915367824363798E-14, -1.200512813638504316E-15, 13.29210990244640200 ) ) ;
#122 = AXIS2_PLACEMENT_3D ( 'NONE', #105, #25, #233 ) ;
#123 = DIRECTION ( 'NONE',  ( 0.0000000000000000000, 1.000000000000000000, 0.0000000000000000000 ) ) ;
#124 = FACE_OUTER_BOUND ( 'NONE', #56, .T. ) ;
#125 = ORIENTED_EDGE ( 'NONE', *, *, #145, .T. ) ;
#126 = CIRCLE ( 'NONE', #192, 2.403999999999999471 ) ;
#127 = DIRECTION ( 'NONE',  ( -3.491481338843133355E-15, -4.921375516753508349E-16, -1.000000000000000000 ) ) ;
#128 = EDGE_CURVE ( 'NONE', #240, #240, #220, .T. ) ;
#129 = CARTESIAN_POINT ( 'NONE',  ( 4.640915367824364429E-14, 6.541546423989659118E-15, 13.29210990244640378 ) ) ;
#130 = APPROVAL_STATUS ( 'not_yet_approved' ) ;
#131 = ADVANCED_FACE ( 'NONE', ( #86, #213 ), #160, .T. ) ;
#132 = VERTEX_POINT ( 'NONE', #46 ) ;
#133 = CARTESIAN_POINT ( 'NONE',  ( 4.640915367824363798E-14, 2.403999999999998138, 13.29210990244640200 ) ) ;
#134 = AXIS2_PLACEMENT_3D ( 'NONE', #87, #82, #103 ) ;
#135 = EDGE_LOOP ( 'NONE', ( #152 ) ) ;
#136 = COORDINATED_UNIVERSAL_TIME_OFFSET ( 1, 0, .AHEAD. ) ;
#137 = EDGE_LOOP ( 'NONE', ( #210 ) ) ;
#138 = APPROVAL_STATUS ( 'not_yet_approved' ) ;
#139 = CARTESIAN_POINT ( 'NONE',  ( -1.866972539212945379E-30, 2.173059892324148645, -5.347221875261540326E-16 ) ) ;
#140 = DIRECTION ( 'NONE',  ( -3.491481338843133355E-15, 9.031770143711729009E-17, -1.000000000000000000 ) ) ;
#141 = FACE_OUTER_BOUND ( 'NONE', #80, .T. ) ;
#142 = DIRECTION ( 'NONE',  ( -3.153425691349006731E-31, -1.000000000000000000, -9.031770143711729009E-17 ) ) ;
#143 = CARTESIAN_POINT ( 'NONE',  ( 4.885231259955590439E-14, 1.999999999999990452, 13.99185842870425134 ) ) ;
#144 = PERSON_AND_ORGANIZATION_ROLE ( 'design_owner' ) ;
#145 = EDGE_CURVE ( 'NONE', #184, #184, #216, .T. ) ;
#146 = AXIS2_PLACEMENT_3D ( 'NONE', #215, #7, #227 ) ;
#147 = DIRECTION ( 'NONE',  ( 0.0000000000000000000, 1.000000000000000000, 0.0000000000000000000 ) ) ;
#148 = COORDINATED_UNIVERSAL_TIME_OFFSET ( 1, 0, .AHEAD. ) ;
#149 = MANIFOLD_SOLID_BREP ( 'Corps-Déplacer/Copier1[1]', #182 ) ;
#150 = CC_DESIGN_PERSON_AND_ORGANIZATION_ASSIGNMENT ( #74, #153, ( #183 ) ) ;
#151 = AXIS2_PLACEMENT_3D ( 'NONE', #45, #108, #49 ) ;
#152 = ORIENTED_EDGE ( 'NONE', *, *, #197, .T. ) ;
#153 = PERSON_AND_ORGANIZATION_ROLE ( 'classification_officer' ) ;
#154 = EDGE_LOOP ( 'NONE', ( #116 ) ) ;
#155 = PRODUCT_DEFINITION ( 'UNKNOWN', '', #157, #59 ) ;
#156 = EDGE_LOOP ( 'NONE', ( #191 ) ) ;
#157 = PRODUCT_DEFINITION_FORMATION_WITH_SPECIFIED_SOURCE ( 'ANY', '', #163, .NOT_KNOWN. ) ;
#158 = FACE_OUTER_BOUND ( 'NONE', #16, .T. ) ;
#159 = CARTESIAN_POINT ( 'NONE',  ( 4.885231259955590439E-14, -1.263712492114123682E-15, 13.99185842870425134 ) ) ;
#160 = CYLINDRICAL_SURFACE ( 'NONE', #172, 1.999999999999993561 ) ;
#161 = ADVANCED_FACE ( 'NONE', ( #22, #38 ), #214, .T. ) ;
#162 = CARTESIAN_POINT ( 'NONE',  ( 2.793185071074506684E-13, 1.599999999999987876, 80.00000000000000000 ) ) ;
#163 = PRODUCT ( '321384', '321384', '', ( #110 ) ) ;
#164 = CALENDAR_DATE ( 2021, 26, 11 ) ;
#165 = CIRCLE ( 'NONE', #146, 2.403999999999998582 ) ;
#166 = CARTESIAN_POINT ( 'NONE',  ( 4.640915367824363798E-14, -1.200512813638504316E-15, 13.29210990244640200 ) ) ;
#167 = PRODUCT_RELATED_PRODUCT_CATEGORY ( 'detail', '', ( #163 ) ) ;
#168 = DATE_AND_TIME ( #32, #4 ) ;
#169 = CALENDAR_DATE ( 2021, 26, 11 ) ;
#170 = APPROVAL_ROLE ( '' ) ;
#171 = ORIENTED_EDGE ( 'NONE', *, *, #73, .F. ) ;
#172 = AXIS2_PLACEMENT_3D ( 'NONE', #232, #43, #20 ) ;
#173 = FACE_OUTER_BOUND ( 'NONE', #186, .T. ) ;
#174 = DIRECTION ( 'NONE',  ( 0.0000000000000000000, 1.000000000000000000, 0.0000000000000000000 ) ) ;
#175 = CC_DESIGN_DATE_AND_TIME_ASSIGNMENT ( #168, #12, ( #155 ) ) ;
#176 = DIRECTION ( 'NONE',  ( -3.491481338843133355E-15, 9.031770143711729009E-17, -1.000000000000000000 ) ) ;
#177 = DIRECTION ( 'NONE',  ( -1.718289077818435769E-30, 1.000000000000000000, -4.921375516753508349E-16 ) ) ;
#178 = VERTEX_POINT ( 'NONE', #201 ) ;
#179 = AXIS2_PLACEMENT_3D ( 'NONE', #91, #50, #27 ) ;
#180 =( NAMED_UNIT ( * ) PLANE_ANGLE_UNIT ( ) SI_UNIT ( $, .RADIAN. ) );
#181 = APPROVAL_ROLE ( '' ) ;
#182 = CLOSED_SHELL ( 'NONE', ( #81, #64, #131, #85, #239 ) ) ;
#183 = SECURITY_CLASSIFICATION ( '', '', #221 ) ;
#184 = VERTEX_POINT ( 'NONE', #219 ) ;
#185 = DATE_AND_TIME ( #169, #97 ) ;
#186 = EDGE_LOOP ( 'NONE', ( #13 ) ) ;
#187 = PERSON_AND_ORGANIZATION_ROLE ( 'creator' ) ;
#188 = CC_DESIGN_DATE_AND_TIME_ASSIGNMENT ( #51, #77, ( #183 ) ) ;
#189 = CONICAL_SURFACE ( 'NONE', #96, 1.999999999999995337, 0.7853981633974516097 ) ;
#190 = DATE_AND_TIME ( #35, #242 ) ;
#191 = ORIENTED_EDGE ( 'NONE', *, *, #90, .F. ) ;
#192 = AXIS2_PLACEMENT_3D ( 'NONE', #166, #67, #147 ) ;
#193 = DIRECTION ( 'NONE',  ( -3.491481338843133355E-15, 9.031770143711729009E-17, -1.000000000000000000 ) ) ;
#194 = ADVANCED_FACE ( 'NONE', ( #141 ), #69, .T. ) ;
#195 = ORIENTED_EDGE ( 'NONE', *, *, #197, .F. ) ;
#196 = FACE_OUTER_BOUND ( 'NONE', #31, .T. ) ;
#197 = EDGE_CURVE ( 'NONE', #68, #68, #126, .T. ) ;
#198 = ORIENTED_EDGE ( 'NONE', *, *, #128, .F. ) ;
#199 =( GEOMETRIC_REPRESENTATION_CONTEXT ( 3 ) GLOBAL_UNCERTAINTY_ASSIGNED_CONTEXT ( ( #37 ) ) GLOBAL_UNIT_ASSIGNED_CONTEXT ( ( #238, #180, #218 ) ) REPRESENTATION_CONTEXT ( 'NONE', 'WORKASPACE' ) );
#200 = PERSON_AND_ORGANIZATION ( #6, #92 ) ;
#201 = CARTESIAN_POINT ( 'NONE',  ( 0.0000000000000000000, 2.173059892324148645, 0.0000000000000000000 ) ) ;
#202 = APPLICATION_PROTOCOL_DEFINITION ( 'international standard', 'config_control_design', 1994, #57 ) ;
#203 = CARTESIAN_POINT ( 'NONE',  ( 1.396592535537253145E-15, 2.403999999999998582, 0.3999999999999999112 ) ) ;
#204 = APPLICATION_PROTOCOL_DEFINITION ( 'international standard', 'config_control_design', 1994, #44 ) ;
#205 = APPROVAL_STATUS ( 'not_yet_approved' ) ;
#206 = EDGE_LOOP ( 'NONE', ( #71 ) ) ;
#207 = AXIS2_PLACEMENT_3D ( 'NONE', #121, #193, #123 ) ;
#208 = COORDINATED_UNIVERSAL_TIME_OFFSET ( 1, 0, .AHEAD. ) ;
#209 = APPROVAL_DATE_TIME ( #190, #100 ) ;
#210 = ORIENTED_EDGE ( 'NONE', *, *, #128, .T. ) ;
#211 = LOCAL_TIME ( 11, 3, 15.00000000000000000, #223 ) ;
#212 = CARTESIAN_POINT ( 'NONE',  ( 4.640915367824364429E-14, 6.541546423989659118E-15, 13.29210990244640378 ) ) ;
#213 = FACE_OUTER_BOUND ( 'NONE', #112, .T. ) ;
#214 = CYLINDRICAL_SURFACE ( 'NONE', #53, 2.403999999999995030 ) ;
#215 = CARTESIAN_POINT ( 'NONE',  ( 1.396592535537257089E-15, 1.968550206701408812E-16, 0.4000000000000010769 ) ) ;
#216 = CIRCLE ( 'NONE', #102, 2.403999999999991477 ) ;
#217 = EDGE_CURVE ( 'NONE', #8, #8, #88, .T. ) ;
#218 =( NAMED_UNIT ( * ) SI_UNIT ( $, .STERADIAN. ) SOLID_ANGLE_UNIT ( ) );
#219 = CARTESIAN_POINT ( 'NONE',  ( 4.640915367824363798E-14, 2.403999999999998138, 13.29210990244640200 ) ) ;
#220 = CIRCLE ( 'NONE', #117, 1.999999999999991784 ) ;
#221 = SECURITY_CLASSIFICATION_LEVEL ( 'unclassified' ) ;
#222 = AXIS2_PLACEMENT_3D ( 'NONE', #129, #89, #23 ) ;
#223 = COORDINATED_UNIVERSAL_TIME_OFFSET ( 1, 0, .AHEAD. ) ;
#224 = PERSON_AND_ORGANIZATION ( #6, #92 ) ;
#225 = AXIS2_PLACEMENT_3D ( 'NONE', #65, #63, #177 ) ;
#226 = ORIENTED_EDGE ( 'NONE', *, *, #145, .F. ) ;
#227 = DIRECTION ( 'NONE',  ( -1.682384726794175386E-30, 1.000000000000000000, -4.960991637828850156E-16 ) ) ;
#228 = CC_DESIGN_PERSON_AND_ORGANIZATION_ASSIGNMENT ( #243, #241, ( #157 ) ) ;
#229 = AXIS2_PLACEMENT_3D ( 'NONE', #3, #36, #142 ) ;
#230 = DIRECTION ( 'NONE',  ( 0.0000000000000000000, 1.000000000000000000, 0.0000000000000000000 ) ) ;
#231 = CARTESIAN_POINT ( 'NONE',  ( 2.779219145719134403E-13, -7.189289034394536528E-15, 79.60000000000000853 ) ) ;
#232 = CARTESIAN_POINT ( 'NONE',  ( 0.0000000000000000000, 0.0000000000000000000, 0.0000000000000000000 ) ) ;
#233 = DIRECTION ( 'NONE',  ( 0.0000000000000000000, 1.000000000000000000, 0.0000000000000000000 ) ) ;
#234 = CIRCLE ( 'NONE', #28, 1.999999999999995337 ) ;
#235 = CONICAL_SURFACE ( 'NONE', #207, 2.403999999999999471, 0.5235987755982925984 ) ;
#236 = CC_DESIGN_PERSON_AND_ORGANIZATION_ASSIGNMENT ( #224, #114, ( #157 ) ) ;
#237 = FACE_OUTER_BOUND ( 'NONE', #135, .T. ) ;
#238 =( LENGTH_UNIT ( ) NAMED_UNIT ( * ) SI_UNIT ( .MILLI., .METRE. ) );
#239 = ADVANCED_FACE ( 'NONE', ( #237 ), #11, .T. ) ;
#240 = VERTEX_POINT ( 'NONE', #143 ) ;
#241 = PERSON_AND_ORGANIZATION_ROLE ( 'design_supplier' ) ;
#242 = LOCAL_TIME ( 11, 3, 15.00000000000000000, #208 ) ;
#243 = PERSON_AND_ORGANIZATION ( #6, #92 ) ;
ENDSEC;
END-ISO-10303-21;
