ISO-10303-21;
HEADER;
FILE_DESCRIPTION (( 'STEP AP203' ),
    '1' );
FILE_NAME ('321383.step',
    '2021-11-26T10:03:14',
    ( '' ),
    ( '' ),
    'SwSTEP 2.0',
    'SolidWorks 2019',
    '' );
FILE_SCHEMA (( 'CONFIG_CONTROL_DESIGN' ));
ENDSEC;

DATA;
#1 = CARTESIAN_POINT ( 'NONE',  ( 4.643939079360640671E-14, -1.201294987877064006E-15, 13.30077015648424599 ) ) ;
#2 = UNCERTAINTY_MEASURE_WITH_UNIT (LENGTH_MEASURE( 1.000000000000000082E-05 ), #193, 'distance_accuracy_value', 'NONE');
#3 = DIRECTION ( 'NONE',  ( 0.0000000000000000000, 1.000000000000000000, 0.0000000000000000000 ) ) ;
#4 = FACE_BOUND ( 'NONE', #106, .T. ) ;
#5 = FACE_BOUND ( 'NONE', #76, .T. ) ;
#6 = FACE_OUTER_BOUND ( 'NONE', #151, .T. ) ;
#7 = PERSON_AND_ORGANIZATION_ROLE ( 'design_owner' ) ;
#8 = APPROVAL_STATUS ( 'not_yet_approved' ) ;
#9 = SECURITY_CLASSIFICATION_LEVEL ( 'unclassified' ) ;
#10 = AXIS2_PLACEMENT_3D ( 'NONE', #1, #136, #94 ) ;
#11 = PERSON_AND_ORGANIZATION ( #140, #73 ) ;
#12 = ORIENTED_EDGE ( 'NONE', *, *, #25, .T. ) ;
#13 = FACE_OUTER_BOUND ( 'NONE', #223, .T. ) ;
#14 = CC_DESIGN_APPROVAL ( #190, ( #110 ) ) ;
#15 = ORIENTED_EDGE ( 'NONE', *, *, #59, .T. ) ;
#16 = APPROVAL ( #8, 'UNSPECIFIED' ) ;
#17 = ORIENTED_EDGE ( 'NONE', *, *, #138, .T. ) ;
#18 = DIRECTION ( 'NONE',  ( -3.491481338843133355E-15, 9.031770143711729009E-17, -1.000000000000000000 ) ) ;
#19 = CC_DESIGN_APPROVAL ( #67, ( #101 ) ) ;
#20 = VERTEX_POINT ( 'NONE', #43 ) ;
#21 = CARTESIAN_POINT ( 'NONE',  ( 2.793185071074506684E-13, -7.225416114969383207E-15, 80.00000000000000000 ) ) ;
#22 = DIRECTION ( 'NONE',  ( -3.491481338843133355E-15, -4.916576406159595719E-16, -1.000000000000000000 ) ) ;
#23 = LOCAL_TIME ( 11, 3, 14.00000000000000000, #195 ) ;
#24 = VERTEX_POINT ( 'NONE', #210 ) ;
#25 = EDGE_CURVE ( 'NONE', #58, #58, #156, .T. ) ;
#26 = PLANE ( 'NONE',  #105 ) ;
#27 = CALENDAR_DATE ( 2021, 26, 11 ) ;
#28 = DATE_AND_TIME ( #213, #207 ) ;
#29 = CC_DESIGN_PERSON_AND_ORGANIZATION_ASSIGNMENT ( #142, #7, ( #161 ) ) ;
#30 = PERSON_AND_ORGANIZATION ( #140, #73 ) ;
#31 = DATE_AND_TIME ( #27, #23 ) ;
#32 = DATE_TIME_ROLE ( 'creation_date' ) ;
#33 = AXIS2_PLACEMENT_3D ( 'NONE', #117, #206, #209 ) ;
#34 = ORIENTED_EDGE ( 'NONE', *, *, #25, .F. ) ;
#35 = DIRECTION ( 'NONE',  ( 0.0000000000000000000, 1.000000000000000000, 0.0000000000000000000 ) ) ;
#36 = DIRECTION ( 'NONE',  ( 3.153425691349006731E-31, 1.000000000000000000, 9.031770143711729009E-17 ) ) ;
#37 = CARTESIAN_POINT ( 'NONE',  ( 3.721720830779478609E-30, 5.240791243348293946E-31, 1.065943211374182025E-15 ) ) ;
#38 = SHAPE_DEFINITION_REPRESENTATION ( #128, #239 ) ;
#39 = DIRECTION ( 'NONE',  ( -3.491481338843133355E-15, -4.916576406159595719E-16, -1.000000000000000000 ) ) ;
#40 = FACE_OUTER_BOUND ( 'NONE', #79, .T. ) ;
#41 = CONICAL_SURFACE ( 'NONE', #135, 1.999999999999995337, 0.7853981633974516097 ) ;
#42 = DESIGN_CONTEXT ( 'detailed design', #51, 'design' ) ;
#43 = CARTESIAN_POINT ( 'NONE',  ( 4.885231259955590439E-14, 1.999999999999990452, 13.99185842870425134 ) ) ;
#44 = PRODUCT_RELATED_PRODUCT_CATEGORY ( 'detail', '', ( #161 ) ) ;
#45 = PLANE ( 'NONE',  #71 ) ;
#46 = FACE_OUTER_BOUND ( 'NONE', #90, .T. ) ;
#47 = DIRECTION ( 'NONE',  ( -3.153425691349006731E-31, -1.000000000000000000, -9.031770143711729009E-17 ) ) ;
#48 = CALENDAR_DATE ( 2021, 26, 11 ) ;
#49 = APPROVAL_STATUS ( 'not_yet_approved' ) ;
#50 = MECHANICAL_CONTEXT ( 'NONE', #81, 'mechanical' ) ;
#51 = APPLICATION_CONTEXT ( 'configuration controlled 3d designs of mechanical parts and assemblies' ) ;
#52 = AXIS2_PLACEMENT_3D ( 'NONE', #75, #39, #72 ) ;
#53 = CYLINDRICAL_SURFACE ( 'NONE', #224, 1.999999999999993561 ) ;
#54 = ORIENTED_EDGE ( 'NONE', *, *, #83, .F. ) ;
#55 = LOCAL_TIME ( 11, 3, 14.00000000000000000, #121 ) ;
#56 = ORIENTED_EDGE ( 'NONE', *, *, #160, .T. ) ;
#57 = MANIFOLD_SOLID_BREP ( 'Corps-Déplacer/Copier1[2]', #77 ) ;
#58 = VERTEX_POINT ( 'NONE', #226 ) ;
#59 = EDGE_CURVE ( 'NONE', #60, #60, #212, .T. ) ;
#60 = VERTEX_POINT ( 'NONE', #98 ) ;
#61 = AXIS2_PLACEMENT_3D ( 'NONE', #108, #184, #97 ) ;
#62 = DIRECTION ( 'NONE',  ( 3.153425691349006731E-31, 1.000000000000000000, 9.031770143711729009E-17 ) ) ;
#63 = FACE_BOUND ( 'NONE', #129, .T. ) ;
#64 = FACE_OUTER_BOUND ( 'NONE', #225, .T. ) ;
#65 = CIRCLE ( 'NONE', #173, 2.398999999999997801 ) ;
#66 = PERSON_AND_ORGANIZATION ( #140, #73 ) ;
#67 = APPROVAL ( #49, 'UNSPECIFIED' ) ;
#68 = PERSON_AND_ORGANIZATION ( #140, #73 ) ;
#69 =( NAMED_UNIT ( * ) SI_UNIT ( $, .STERADIAN. ) SOLID_ANGLE_UNIT ( ) );
#70 = PERSON_AND_ORGANIZATION ( #140, #73 ) ;
#71 = AXIS2_PLACEMENT_3D ( 'NONE', #172, #114, #62 ) ;
#72 = DIRECTION ( 'NONE',  ( -2.568976999599489493E-30, 1.000000000000000000, -7.231027411324772332E-16 ) ) ;
#73 = ORGANIZATION ( 'UNSPECIFIED', 'UNSPECIFIED', '' ) ;
#74 = ADVANCED_FACE ( 'NONE', ( #240 ), #132, .T. ) ;
#75 = CARTESIAN_POINT ( 'NONE',  ( 4.643939079360641302E-14, 6.539425273512212185E-15, 13.30077015648424776 ) ) ;
#76 = EDGE_LOOP ( 'NONE', ( #126 ) ) ;
#77 = CLOSED_SHELL ( 'NONE', ( #236, #233, #201, #74 ) ) ;
#78 = CONICAL_SURFACE ( 'NONE', #33, 2.168059892324148308, 0.5235987755982979275 ) ;
#79 = EDGE_LOOP ( 'NONE', ( #12 ) ) ;
#80 = PLANE ( 'NONE',  #146 ) ;
#81 = APPLICATION_CONTEXT ( 'configuration controlled 3d designs of mechanical parts and assemblies' ) ;
#82 = CARTESIAN_POINT ( 'NONE',  ( 4.885231259955590439E-14, -1.263712492114123682E-15, 13.99185842870425134 ) ) ;
#83 = EDGE_CURVE ( 'NONE', #176, #176, #163, .T. ) ;
#84 = DIRECTION ( 'NONE',  ( 3.491481338843133355E-15, 4.916576406159595719E-16, 1.000000000000000000 ) ) ;
#85 = DIRECTION ( 'NONE',  ( 1.716613477310266517E-30, -1.000000000000000000, 4.916576406159595719E-16 ) ) ;
#86 = DIRECTION ( 'NONE',  ( 1.000000000000000000, 0.0000000000000000000, 0.0000000000000000000 ) ) ;
#87 = CC_DESIGN_SECURITY_CLASSIFICATION ( #101, ( #192 ) ) ;
#88 = PERSON_AND_ORGANIZATION_ROLE ( 'design_supplier' ) ;
#89 = ORIENTED_EDGE ( 'NONE', *, *, #165, .T. ) ;
#90 = EDGE_LOOP ( 'NONE', ( #168 ) ) ;
#91 = LOCAL_TIME ( 11, 3, 14.00000000000000000, #177 ) ;
#92 = APPROVAL_PERSON_ORGANIZATION ( #158, #190, #139 ) ;
#93 = CYLINDRICAL_SURFACE ( 'NONE', #187, 2.398999999999994692 ) ;
#94 = DIRECTION ( 'NONE',  ( 0.0000000000000000000, 1.000000000000000000, 0.0000000000000000000 ) ) ;
#95 = CARTESIAN_POINT ( 'NONE',  ( 4.643939079360640671E-14, 6.539425273512211396E-15, 13.30077015648424599 ) ) ;
#96 = CONICAL_SURFACE ( 'NONE', #10, 2.398999999999999577, 0.5235987755982921543 ) ;
#97 = DIRECTION ( 'NONE',  ( 0.0000000000000000000, 1.000000000000000000, 0.0000000000000000000 ) ) ;
#98 = CARTESIAN_POINT ( 'NONE',  ( 6.842277657836020854E-46, 2.168059892324148308, 0.0000000000000000000 ) ) ;
#99 = CALENDAR_DATE ( 2021, 26, 11 ) ;
#100 = CC_DESIGN_DATE_AND_TIME_ASSIGNMENT ( #197, #32, ( #110 ) ) ;
#101 = SECURITY_CLASSIFICATION ( '', '', #9 ) ;
#102 = APPROVAL_ROLE ( '' ) ;
#103 = APPROVAL_DATE_TIME ( #28, #16 ) ;
#104 = APPROVAL_ROLE ( '' ) ;
#105 = AXIS2_PLACEMENT_3D ( 'NONE', #95, #84, #85 ) ;
#106 = EDGE_LOOP ( 'NONE', ( #89 ) ) ;
#107 = EDGE_LOOP ( 'NONE', ( #56 ) ) ;
#108 = CARTESIAN_POINT ( 'NONE',  ( 4.643939079360640671E-14, -1.201294987877064006E-15, 13.30077015648424599 ) ) ;
#109 = AXIS2_PLACEMENT_3D ( 'NONE', #82, #230, #113 ) ;
#110 = PRODUCT_DEFINITION ( 'UNKNOWN', '', #192, #42 ) ;
#111 = DIRECTION ( 'NONE',  ( -1.716613477310266517E-30, 1.000000000000000000, -4.916576406159595719E-16 ) ) ;
#112 = VERTEX_POINT ( 'NONE', #188 ) ;
#113 = DIRECTION ( 'NONE',  ( 0.0000000000000000000, 1.000000000000000000, 0.0000000000000000000 ) ) ;
#114 = DIRECTION ( 'NONE',  ( -3.491481338843133355E-15, 9.031770143711729009E-17, -1.000000000000000000 ) ) ;
#115 = CARTESIAN_POINT ( 'NONE',  ( 0.0000000000000000000, 0.0000000000000000000, 0.0000000000000000000 ) ) ;
#116 = AXIS2_PLACEMENT_3D ( 'NONE', #186, #18, #169 ) ;
#117 = CARTESIAN_POINT ( 'NONE',  ( 3.721720830779478609E-30, 5.240791243348293946E-31, 1.065943211374182025E-15 ) ) ;
#118 = CC_DESIGN_PERSON_AND_ORGANIZATION_ASSIGNMENT ( #214, #88, ( #192 ) ) ;
#119 = DATE_AND_TIME ( #48, #237 ) ;
#120 = AXIS2_PLACEMENT_3D ( 'NONE', #148, #204, #111 ) ;
#121 = COORDINATED_UNIVERSAL_TIME_OFFSET ( 1, 0, .AHEAD. ) ;
#122 = CC_DESIGN_PERSON_AND_ORGANIZATION_ASSIGNMENT ( #66, #159, ( #101 ) ) ;
#123 = APPLICATION_PROTOCOL_DEFINITION ( 'international standard', 'config_control_design', 1994, #81 ) ;
#124 = DIRECTION ( 'NONE',  ( 0.0000000000000000000, 0.0000000000000000000, 1.000000000000000000 ) ) ;
#125 = EDGE_LOOP ( 'NONE', ( #15 ) ) ;
#126 = ORIENTED_EDGE ( 'NONE', *, *, #59, .F. ) ;
#127 = CARTESIAN_POINT ( 'NONE',  ( 0.0000000000000000000, 0.0000000000000000000, 0.0000000000000000000 ) ) ;
#128 = PRODUCT_DEFINITION_SHAPE ( 'NONE', 'NONE',  #110 ) ;
#129 = EDGE_LOOP ( 'NONE', ( #181 ) ) ;
#130 = APPROVAL_PERSON_ORGANIZATION ( #68, #67, #102 ) ;
#131 = DATE_AND_TIME ( #166, #91 ) ;
#132 = PLANE ( 'NONE',  #120 ) ;
#133 = CARTESIAN_POINT ( 'NONE',  ( 2.793185071074506684E-13, 1.599999999999987876, 80.00000000000000000 ) ) ;
#134 = DIRECTION ( 'NONE',  ( 3.491481338843133355E-15, -9.031770143711729009E-17, 1.000000000000000000 ) ) ;
#135 = AXIS2_PLACEMENT_3D ( 'NONE', #137, #152, #3 ) ;
#136 = DIRECTION ( 'NONE',  ( -3.491481338843133355E-15, 9.031770143711729009E-17, -1.000000000000000000 ) ) ;
#137 = CARTESIAN_POINT ( 'NONE',  ( 2.779219145719134403E-13, -7.189289034394536528E-15, 79.60000000000000853 ) ) ;
#138 = EDGE_CURVE ( 'NONE', #24, #24, #183, .T. ) ;
#139 = APPROVAL_ROLE ( '' ) ;
#140 = PERSON ( 'UNSPECIFIED', 'UNSPECIFIED', 'UNSPECIFIED', ('UNSPECIFIED'), ('UNSPECIFIED'), ('UNSPECIFIED') ) ;
#141 = PERSON_AND_ORGANIZATION_ROLE ( 'creator' ) ;
#142 = PERSON_AND_ORGANIZATION ( #140, #73 ) ;
#143 = CC_DESIGN_PERSON_AND_ORGANIZATION_ASSIGNMENT ( #70, #217, ( #110 ) ) ;
#144 = MANIFOLD_SOLID_BREP ( 'Corps-Déplacer/Copier1[1]', #178 ) ;
#145 = ADVANCED_FACE ( 'NONE', ( #222, #13 ), #53, .T. ) ;
#146 = AXIS2_PLACEMENT_3D ( 'NONE', #21, #134, #47 ) ;
#147 = DIRECTION ( 'NONE',  ( -3.491481338843133355E-15, 9.031770143711729009E-17, -1.000000000000000000 ) ) ;
#148 = CARTESIAN_POINT ( 'NONE',  ( -1.860860415389739304E-30, 2.168059892324148308, -5.329716056870910126E-16 ) ) ;
#149 = EDGE_LOOP ( 'NONE', ( #167 ) ) ;
#150 = EDGE_LOOP ( 'NONE', ( #34 ) ) ;
#151 = EDGE_LOOP ( 'NONE', ( #185 ) ) ;
#152 = DIRECTION ( 'NONE',  ( -3.491481338843133355E-15, 9.031770143711729009E-17, -1.000000000000000000 ) ) ;
#153 = FACE_OUTER_BOUND ( 'NONE', #149, .T. ) ;
#154 = VERTEX_POINT ( 'NONE', #231 ) ;
#155 = EDGE_CURVE ( 'NONE', #154, #154, #198, .T. ) ;
#156 = CIRCLE ( 'NONE', #52, 2.398999999999992028 ) ;
#157 = DATE_TIME_ROLE ( 'classification_date' ) ;
#158 = PERSON_AND_ORGANIZATION ( #140, #73 ) ;
#159 = PERSON_AND_ORGANIZATION_ROLE ( 'classification_officer' ) ;
#160 = EDGE_CURVE ( 'NONE', #112, #112, #65, .T. ) ;
#161 = PRODUCT ( '321383', '321383', '', ( #50 ) ) ;
#162 = EDGE_LOOP ( 'NONE', ( #17 ) ) ;
#163 = CIRCLE ( 'NONE', #116, 1.599999999999994982 ) ;
#164 = ORIENTED_EDGE ( 'NONE', *, *, #165, .F. ) ;
#165 = EDGE_CURVE ( 'NONE', #20, #20, #241, .T. ) ;
#166 = CALENDAR_DATE ( 2021, 26, 11 ) ;
#167 = ORIENTED_EDGE ( 'NONE', *, *, #155, .F. ) ;
#168 = ORIENTED_EDGE ( 'NONE', *, *, #160, .F. ) ;
#169 = DIRECTION ( 'NONE',  ( 0.0000000000000000000, 1.000000000000000000, 0.0000000000000000000 ) ) ;
#170 = APPROVAL_PERSON_ORGANIZATION ( #30, #16, #104 ) ;
#171 = FACE_OUTER_BOUND ( 'NONE', #242, .T. ) ;
#172 = CARTESIAN_POINT ( 'NONE',  ( 4.643939079360640671E-14, 2.398999999999998245, 13.30077015648424599 ) ) ;
#173 = AXIS2_PLACEMENT_3D ( 'NONE', #189, #175, #191 ) ;
#174 = ADVANCED_FACE ( 'NONE', ( #4, #153 ), #96, .T. ) ;
#175 = DIRECTION ( 'NONE',  ( -3.491481338843133355E-15, -4.916576406159595719E-16, -1.000000000000000000 ) ) ;
#176 = VERTEX_POINT ( 'NONE', #133 ) ;
#177 = COORDINATED_UNIVERSAL_TIME_OFFSET ( 1, 0, .AHEAD. ) ;
#178 = CLOSED_SHELL ( 'NONE', ( #182, #227, #145, #174, #218 ) ) ;
#179 = COORDINATED_UNIVERSAL_TIME_OFFSET ( 1, 0, .AHEAD. ) ;
#180 = DIRECTION ( 'NONE',  ( -1.716613477310266517E-30, 1.000000000000000000, -4.916576406159595719E-16 ) ) ;
#181 = ORIENTED_EDGE ( 'NONE', *, *, #83, .T. ) ;
#182 = ADVANCED_FACE ( 'NONE', ( #171 ), #80, .T. ) ;
#183 = CIRCLE ( 'NONE', #232, 1.999999999999995337 ) ;
#184 = DIRECTION ( 'NONE',  ( -3.491481338843133355E-15, 9.031770143711729009E-17, -1.000000000000000000 ) ) ;
#185 = ORIENTED_EDGE ( 'NONE', *, *, #138, .F. ) ;
#186 = CARTESIAN_POINT ( 'NONE',  ( 2.793185071074506684E-13, -7.225416114969383207E-15, 80.00000000000000000 ) ) ;
#187 = AXIS2_PLACEMENT_3D ( 'NONE', #115, #22, #211 ) ;
#188 = CARTESIAN_POINT ( 'NONE',  ( 1.396592535537253145E-15, 2.398999999999997801, 0.3999999999999999112 ) ) ;
#189 = CARTESIAN_POINT ( 'NONE',  ( 1.396592535537257089E-15, 1.966630562463843711E-16, 0.4000000000000010769 ) ) ;
#190 = APPROVAL ( #234, 'UNSPECIFIED' ) ;
#191 = DIRECTION ( 'NONE',  ( -1.685891155987160973E-30, 1.000000000000000000, -4.971331345285769022E-16 ) ) ;
#192 = PRODUCT_DEFINITION_FORMATION_WITH_SPECIFIED_SOURCE ( 'ANY', '', #161, .NOT_KNOWN. ) ;
#193 =( LENGTH_UNIT ( ) NAMED_UNIT ( * ) SI_UNIT ( .MILLI., .METRE. ) );
#194 =( NAMED_UNIT ( * ) PLANE_ANGLE_UNIT ( ) SI_UNIT ( $, .RADIAN. ) );
#195 = COORDINATED_UNIVERSAL_TIME_OFFSET ( 1, 0, .AHEAD. ) ;
#196 = CC_DESIGN_DATE_AND_TIME_ASSIGNMENT ( #119, #157, ( #101 ) ) ;
#197 = DATE_AND_TIME ( #99, #55 ) ;
#198 = CIRCLE ( 'NONE', #61, 2.398999999999999577 ) ;
#199 = APPROVAL_DATE_TIME ( #131, #67 ) ;
#200 = DIRECTION ( 'NONE',  ( -3.491481338843133355E-15, -4.916576406159595719E-16, -1.000000000000000000 ) ) ;
#201 = ADVANCED_FACE ( 'NONE', ( #229, #5 ), #78, .T. ) ;
#202 = DIRECTION ( 'NONE',  ( -3.491481338843133355E-15, 9.031770143711729009E-17, -1.000000000000000000 ) ) ;
#203 =( GEOMETRIC_REPRESENTATION_CONTEXT ( 3 ) GLOBAL_UNCERTAINTY_ASSIGNED_CONTEXT ( ( #2 ) ) GLOBAL_UNIT_ASSIGNED_CONTEXT ( ( #193, #194, #69 ) ) REPRESENTATION_CONTEXT ( 'NONE', 'WORKASPACE' ) );
#204 = DIRECTION ( 'NONE',  ( -3.491481338843133355E-15, -4.916576406159595719E-16, -1.000000000000000000 ) ) ;
#205 = CC_DESIGN_PERSON_AND_ORGANIZATION_ASSIGNMENT ( #11, #141, ( #192 ) ) ;
#206 = DIRECTION ( 'NONE',  ( 3.491481338843133355E-15, 4.916576406159595719E-16, 1.000000000000000000 ) ) ;
#207 = LOCAL_TIME ( 11, 3, 14.00000000000000000, #179 ) ;
#208 = FACE_OUTER_BOUND ( 'NONE', #150, .T. ) ;
#209 = DIRECTION ( 'NONE',  ( 1.716613477310266867E-30, -1.000000000000000000, 4.916576406159595719E-16 ) ) ;
#210 = CARTESIAN_POINT ( 'NONE',  ( 2.779219145719134403E-13, 1.999999999999988010, 79.60000000000000853 ) ) ;
#211 = DIRECTION ( 'NONE',  ( -1.716613477310266517E-30, 1.000000000000000000, -4.916576406159596705E-16 ) ) ;
#212 = CIRCLE ( 'NONE', #228, 2.168059892324148308 ) ;
#213 = CALENDAR_DATE ( 2021, 26, 11 ) ;
#214 = PERSON_AND_ORGANIZATION ( #140, #73 ) ;
#215 = APPROVAL_DATE_TIME ( #31, #190 ) ;
#216 = CC_DESIGN_APPROVAL ( #16, ( #192 ) ) ;
#217 = PERSON_AND_ORGANIZATION_ROLE ( 'creator' ) ;
#218 = ADVANCED_FACE ( 'NONE', ( #64 ), #45, .T. ) ;
#219 = APPLICATION_PROTOCOL_DEFINITION ( 'international standard', 'config_control_design', 1994, #51 ) ;
#220 = AXIS2_PLACEMENT_3D ( 'NONE', #238, #124, #86 ) ;
#221 = CARTESIAN_POINT ( 'NONE',  ( 2.779219145719134403E-13, -7.189289034394536528E-15, 79.60000000000000853 ) ) ;
#222 = FACE_OUTER_BOUND ( 'NONE', #162, .T. ) ;
#223 = EDGE_LOOP ( 'NONE', ( #164 ) ) ;
#224 = AXIS2_PLACEMENT_3D ( 'NONE', #127, #202, #36 ) ;
#225 = EDGE_LOOP ( 'NONE', ( #243 ) ) ;
#226 = CARTESIAN_POINT ( 'NONE',  ( 4.643939079360640671E-14, 2.398999999999998245, 13.30077015648424599 ) ) ;
#227 = ADVANCED_FACE ( 'NONE', ( #63, #6 ), #41, .T. ) ;
#228 = AXIS2_PLACEMENT_3D ( 'NONE', #37, #200, #180 ) ;
#229 = FACE_OUTER_BOUND ( 'NONE', #107, .T. ) ;
#230 = DIRECTION ( 'NONE',  ( -3.491481338843133355E-15, 9.031770143711729009E-17, -1.000000000000000000 ) ) ;
#231 = CARTESIAN_POINT ( 'NONE',  ( 4.643939079360640671E-14, 2.398999999999998245, 13.30077015648424599 ) ) ;
#232 = AXIS2_PLACEMENT_3D ( 'NONE', #221, #147, #35 ) ;
#233 = ADVANCED_FACE ( 'NONE', ( #40, #46 ), #93, .T. ) ;
#234 = APPROVAL_STATUS ( 'not_yet_approved' ) ;
#235 = COORDINATED_UNIVERSAL_TIME_OFFSET ( 1, 0, .AHEAD. ) ;
#236 = ADVANCED_FACE ( 'NONE', ( #208 ), #26, .T. ) ;
#237 = LOCAL_TIME ( 11, 3, 14.00000000000000000, #235 ) ;
#238 = CARTESIAN_POINT ( 'NONE',  ( 0.0000000000000000000, 0.0000000000000000000, 0.0000000000000000000 ) ) ;
#239 = ADVANCED_BREP_SHAPE_REPRESENTATION ( '321383', ( #144, #57, #220 ), #203 ) ;
#240 = FACE_OUTER_BOUND ( 'NONE', #125, .T. ) ;
#241 = CIRCLE ( 'NONE', #109, 1.999999999999991784 ) ;
#242 = EDGE_LOOP ( 'NONE', ( #54 ) ) ;
#243 = ORIENTED_EDGE ( 'NONE', *, *, #155, .T. ) ;
ENDSEC;
END-ISO-10303-21;
