ISO-10303-21;
HEADER;
FILE_DESCRIPTION (( 'STEP AP203' ),
    '1' );
FILE_NAME ('321382.step',
    '2021-11-26T10:03:14',
    ( '' ),
    ( '' ),
    'SwSTEP 2.0',
    'SolidWorks 2019',
    '' );
FILE_SCHEMA (( 'CONFIG_CONTROL_DESIGN' ));
ENDSEC;

DATA;
#1 = DIRECTION ( 'NONE',  ( 0.0000000000000000000, 1.000000000000000000, 0.0000000000000000000 ) ) ;
#2 = CC_DESIGN_PERSON_AND_ORGANIZATION_ASSIGNMENT ( #122, #214, ( #162 ) ) ;
#3 = FACE_BOUND ( 'NONE', #150, .T. ) ;
#4 = LOCAL_TIME ( 11, 3, 14.00000000000000000, #67 ) ;
#5 = DIRECTION ( 'NONE',  ( 0.0000000000000000000, 1.000000000000000000, 0.0000000000000000000 ) ) ;
#6 = VERTEX_POINT ( 'NONE', #85 ) ;
#7 = DIRECTION ( 'NONE',  ( -2.574342448637917651E-30, 1.000000000000000000, -7.246129807756110107E-16 ) ) ;
#8 = AXIS2_PLACEMENT_3D ( 'NONE', #204, #38, #153 ) ;
#9 = APPROVAL_DATE_TIME ( #210, #62 ) ;
#10 = ADVANCED_FACE ( 'NONE', ( #181, #13 ), #56, .T. ) ;
#11 = APPROVAL_PERSON_ORGANIZATION ( #106, #62, #49 ) ;
#12 = DATE_TIME_ROLE ( 'creation_date' ) ;
#13 = FACE_OUTER_BOUND ( 'NONE', #127, .T. ) ;
#14 = ADVANCED_FACE ( 'NONE', ( #220, #130 ), #53, .T. ) ;
#15 = ORIENTED_EDGE ( 'NONE', *, *, #82, .F. ) ;
#16 = AXIS2_PLACEMENT_3D ( 'NONE', #60, #114, #1 ) ;
#17 = ORIENTED_EDGE ( 'NONE', *, *, #107, .F. ) ;
#18 = EDGE_LOOP ( 'NONE', ( #185 ) ) ;
#19 = EDGE_LOOP ( 'NONE', ( #131 ) ) ;
#20 = CONICAL_SURFACE ( 'NONE', #146, 1.999999999999995337, 0.7853981633974516097 ) ;
#21 = FACE_BOUND ( 'NONE', #81, .T. ) ;
#22 = CARTESIAN_POINT ( 'NONE',  ( 4.646962790896918807E-14, -1.202077162115623697E-15, 13.30943041052209175 ) ) ;
#23 = VERTEX_POINT ( 'NONE', #172 ) ;
#24 = CONICAL_SURFACE ( 'NONE', #168, 2.163059892324149303, 0.5235987755982979275 ) ;
#25 = VERTEX_POINT ( 'NONE', #83 ) ;
#26 = DIRECTION ( 'NONE',  ( -3.491481338843133355E-15, 9.031770143711729009E-17, -1.000000000000000000 ) ) ;
#27 =( LENGTH_UNIT ( ) NAMED_UNIT ( * ) SI_UNIT ( .MILLI., .METRE. ) );
#28 = CIRCLE ( 'NONE', #66, 1.999999999999991784 ) ;
#29 = PERSON_AND_ORGANIZATION ( #222, #205 ) ;
#30 = PERSON_AND_ORGANIZATION ( #222, #205 ) ;
#31 = ORIENTED_EDGE ( 'NONE', *, *, #82, .T. ) ;
#32 = EDGE_LOOP ( 'NONE', ( #17 ) ) ;
#33 = PRODUCT_DEFINITION_SHAPE ( 'NONE', 'NONE',  #211 ) ;
#34 = PLANE ( 'NONE',  #182 ) ;
#35 = CC_DESIGN_APPROVAL ( #90, ( #55 ) ) ;
#36 = FACE_OUTER_BOUND ( 'NONE', #184, .T. ) ;
#37 = ORIENTED_EDGE ( 'NONE', *, *, #171, .F. ) ;
#38 = DIRECTION ( 'NONE',  ( 3.491481338843133355E-15, 4.911783540989508728E-16, 1.000000000000000000 ) ) ;
#39 = CIRCLE ( 'NONE', #115, 2.393999999999992134 ) ;
#40 = UNCERTAINTY_MEASURE_WITH_UNIT (LENGTH_MEASURE( 1.000000000000000082E-05 ), #27, 'distance_accuracy_value', 'NONE');
#41 = DIRECTION ( 'NONE',  ( -3.491481338843133355E-15, -4.911783540989508728E-16, -1.000000000000000000 ) ) ;
#42 = PLANE ( 'NONE',  #111 ) ;
#43 = PRODUCT_RELATED_PRODUCT_CATEGORY ( 'detail', '', ( #72 ) ) ;
#44 = CLOSED_SHELL ( 'NONE', ( #133, #224, #14, #203, #74 ) ) ;
#45 = DIRECTION ( 'NONE',  ( -1.689412231918628839E-30, 1.000000000000000000, -4.981714242832312263E-16 ) ) ;
#46 = DATE_AND_TIME ( #212, #155 ) ;
#47 = CC_DESIGN_PERSON_AND_ORGANIZATION_ASSIGNMENT ( #124, #121, ( #211 ) ) ;
#48 = PERSON_AND_ORGANIZATION_ROLE ( 'creator' ) ;
#49 = APPROVAL_ROLE ( '' ) ;
#50 = DIRECTION ( 'NONE',  ( 1.000000000000000000, 0.0000000000000000000, 0.0000000000000000000 ) ) ;
#51 = ADVANCED_FACE ( 'NONE', ( #36 ), #34, .T. ) ;
#52 = AXIS2_PLACEMENT_3D ( 'NONE', #179, #176, #50 ) ;
#53 = CYLINDRICAL_SURFACE ( 'NONE', #157, 1.999999999999993561 ) ;
#54 = CARTESIAN_POINT ( 'NONE',  ( 0.0000000000000000000, 0.0000000000000000000, 0.0000000000000000000 ) ) ;
#55 = SECURITY_CLASSIFICATION ( '', '', #193 ) ;
#56 = CYLINDRICAL_SURFACE ( 'NONE', #79, 2.393999999999995687 ) ;
#57 = CARTESIAN_POINT ( 'NONE',  ( 2.779219145719134403E-13, -7.189289034394536528E-15, 79.60000000000000853 ) ) ;
#58 = EDGE_CURVE ( 'NONE', #25, #25, #237, .T. ) ;
#59 = DIRECTION ( 'NONE',  ( 0.0000000000000000000, 1.000000000000000000, 0.0000000000000000000 ) ) ;
#60 = CARTESIAN_POINT ( 'NONE',  ( 4.646962790896918807E-14, -1.202077162115623697E-15, 13.30943041052209175 ) ) ;
#61 = DIRECTION ( 'NONE',  ( 3.153425691349006731E-31, 1.000000000000000000, 9.031770143711729009E-17 ) ) ;
#62 = APPROVAL ( #68, 'UNSPECIFIED' ) ;
#63 = DIRECTION ( 'NONE',  ( 1.714940057380171347E-30, -1.000000000000000000, 4.911783540989508728E-16 ) ) ;
#64 = MANIFOLD_SOLID_BREP ( 'Corps-Déplacer/Copier1[2]', #196 ) ;
#65 = MANIFOLD_SOLID_BREP ( 'Corps-Déplacer/Copier1[1]', #44 ) ;
#66 = AXIS2_PLACEMENT_3D ( 'NONE', #154, #188, #5 ) ;
#67 = COORDINATED_UNIVERSAL_TIME_OFFSET ( 1, 0, .AHEAD. ) ;
#68 = APPROVAL_STATUS ( 'not_yet_approved' ) ;
#69 = COORDINATED_UNIVERSAL_TIME_OFFSET ( 1, 0, .AHEAD. ) ;
#70 = APPROVAL_PERSON_ORGANIZATION ( #234, #215, #71 ) ;
#71 = APPROVAL_ROLE ( '' ) ;
#72 = PRODUCT ( '321382', '321382', '', ( #235 ) ) ;
#73 = CARTESIAN_POINT ( 'NONE',  ( 0.0000000000000000000, 0.0000000000000000000, 0.0000000000000000000 ) ) ;
#74 = ADVANCED_FACE ( 'NONE', ( #95 ), #167, .T. ) ;
#75 = DATE_AND_TIME ( #129, #119 ) ;
#76 = EDGE_LOOP ( 'NONE', ( #166 ) ) ;
#77 = APPROVAL_DATE_TIME ( #75, #90 ) ;
#78 = DIRECTION ( 'NONE',  ( -3.491481338843133355E-15, 9.031770143711729009E-17, -1.000000000000000000 ) ) ;
#79 = AXIS2_PLACEMENT_3D ( 'NONE', #73, #148, #197 ) ;
#80 = AXIS2_PLACEMENT_3D ( 'NONE', #149, #221, #112 ) ;
#81 = EDGE_LOOP ( 'NONE', ( #109 ) ) ;
#82 = EDGE_CURVE ( 'NONE', #138, #138, #137, .T. ) ;
#83 = CARTESIAN_POINT ( 'NONE',  ( 2.793185071074506684E-13, 1.599999999999987876, 80.00000000000000000 ) ) ;
#84 = DIRECTION ( 'NONE',  ( 3.491481338843133355E-15, 4.911783540989508728E-16, 1.000000000000000000 ) ) ;
#85 = CARTESIAN_POINT ( 'NONE',  ( 2.779219145719134403E-13, 1.999999999999988010, 79.60000000000000853 ) ) ;
#86 = FACE_OUTER_BOUND ( 'NONE', #152, .T. ) ;
#87 = LOCAL_TIME ( 11, 3, 14.00000000000000000, #108 ) ;
#88 = PERSON_AND_ORGANIZATION ( #222, #205 ) ;
#89 = PERSON_AND_ORGANIZATION_ROLE ( 'design_owner' ) ;
#90 = APPROVAL ( #177, 'UNSPECIFIED' ) ;
#91 = CC_DESIGN_SECURITY_CLASSIFICATION ( #55, ( #162 ) ) ;
#92 = ORIENTED_EDGE ( 'NONE', *, *, #135, .F. ) ;
#93 = AXIS2_PLACEMENT_3D ( 'NONE', #225, #41, #45 ) ;
#94 = CARTESIAN_POINT ( 'NONE',  ( -1.854759027929562094E-30, 2.163059892324149303, -5.312240988646148172E-16 ) ) ;
#95 = FACE_OUTER_BOUND ( 'NONE', #76, .T. ) ;
#96 = EDGE_LOOP ( 'NONE', ( #147 ) ) ;
#97 = EDGE_CURVE ( 'NONE', #117, #117, #151, .T. ) ;
#98 = APPLICATION_CONTEXT ( 'configuration controlled 3d designs of mechanical parts and assemblies' ) ;
#99 = DIRECTION ( 'NONE',  ( 0.0000000000000000000, 1.000000000000000000, 0.0000000000000000000 ) ) ;
#100 = FACE_OUTER_BOUND ( 'NONE', #32, .T. ) ;
#101 = EDGE_CURVE ( 'NONE', #189, #189, #227, .T. ) ;
#102 = CARTESIAN_POINT ( 'NONE',  ( 0.0000000000000000000, 2.163059892324149303, 0.0000000000000000000 ) ) ;
#103 = CARTESIAN_POINT ( 'NONE',  ( 4.646962790896918807E-14, 2.393999999999998352, 13.30943041052209175 ) ) ;
#104 = DIRECTION ( 'NONE',  ( 0.0000000000000000000, 1.000000000000000000, 0.0000000000000000000 ) ) ;
#105 = AXIS2_PLACEMENT_3D ( 'NONE', #22, #26, #104 ) ;
#106 = PERSON_AND_ORGANIZATION ( #222, #205 ) ;
#107 = EDGE_CURVE ( 'NONE', #23, #23, #39, .T. ) ;
#108 = COORDINATED_UNIVERSAL_TIME_OFFSET ( 1, 0, .AHEAD. ) ;
#109 = ORIENTED_EDGE ( 'NONE', *, *, #171, .T. ) ;
#110 = EDGE_LOOP ( 'NONE', ( #238 ) ) ;
#111 = AXIS2_PLACEMENT_3D ( 'NONE', #208, #170, #116 ) ;
#112 = DIRECTION ( 'NONE',  ( 0.0000000000000000000, 1.000000000000000000, 0.0000000000000000000 ) ) ;
#113 = EDGE_LOOP ( 'NONE', ( #37 ) ) ;
#114 = DIRECTION ( 'NONE',  ( -3.491481338843133355E-15, 9.031770143711729009E-17, -1.000000000000000000 ) ) ;
#115 = AXIS2_PLACEMENT_3D ( 'NONE', #207, #120, #7 ) ;
#116 = DIRECTION ( 'NONE',  ( -3.153425691349006731E-31, -1.000000000000000000, -9.031770143711729009E-17 ) ) ;
#117 = VERTEX_POINT ( 'NONE', #103 ) ;
#118 = DIRECTION ( 'NONE',  ( -3.491481338843133355E-15, 9.031770143711729009E-17, -1.000000000000000000 ) ) ;
#119 = LOCAL_TIME ( 11, 3, 14.00000000000000000, #240 ) ;
#120 = DIRECTION ( 'NONE',  ( -3.491481338843133355E-15, -4.911783540989508728E-16, -1.000000000000000000 ) ) ;
#121 = PERSON_AND_ORGANIZATION_ROLE ( 'creator' ) ;
#122 = PERSON_AND_ORGANIZATION ( #222, #205 ) ;
#123 = DATE_AND_TIME ( #145, #191 ) ;
#124 = PERSON_AND_ORGANIZATION ( #222, #205 ) ;
#125 = ORIENTED_EDGE ( 'NONE', *, *, #58, .F. ) ;
#126 = SHAPE_DEFINITION_REPRESENTATION ( #33, #141 ) ;
#127 = EDGE_LOOP ( 'NONE', ( #15 ) ) ;
#128 = APPLICATION_CONTEXT ( 'configuration controlled 3d designs of mechanical parts and assemblies' ) ;
#129 = CALENDAR_DATE ( 2021, 26, 11 ) ;
#130 = FACE_OUTER_BOUND ( 'NONE', #113, .T. ) ;
#131 = ORIENTED_EDGE ( 'NONE', *, *, #107, .T. ) ;
#132 = AXIS2_PLACEMENT_3D ( 'NONE', #57, #134, #59 ) ;
#133 = ADVANCED_FACE ( 'NONE', ( #86 ), #42, .T. ) ;
#134 = DIRECTION ( 'NONE',  ( -3.491481338843133355E-15, 9.031770143711729009E-17, -1.000000000000000000 ) ) ;
#135 = EDGE_CURVE ( 'NONE', #6, #6, #217, .T. ) ;
#136 = CARTESIAN_POINT ( 'NONE',  ( 1.396592535537253145E-15, 2.393999999999998796, 0.3999999999999999112 ) ) ;
#137 = CIRCLE ( 'NONE', #93, 2.393999999999998796 ) ;
#138 = VERTEX_POINT ( 'NONE', #136 ) ;
#139 = FACE_OUTER_BOUND ( 'NONE', #164, .T. ) ;
#140 = CALENDAR_DATE ( 2021, 26, 11 ) ;
#141 = ADVANCED_BREP_SHAPE_REPRESENTATION ( '321382', ( #65, #64, #52 ), #233 ) ;
#142 = APPROVAL_STATUS ( 'not_yet_approved' ) ;
#143 = APPROVAL_DATE_TIME ( #46, #215 ) ;
#144 = CC_DESIGN_DATE_AND_TIME_ASSIGNMENT ( #123, #194, ( #55 ) ) ;
#145 = CALENDAR_DATE ( 2021, 26, 11 ) ;
#146 = AXIS2_PLACEMENT_3D ( 'NONE', #187, #118, #99 ) ;
#147 = ORIENTED_EDGE ( 'NONE', *, *, #97, .F. ) ;
#148 = DIRECTION ( 'NONE',  ( -3.491481338843133355E-15, -4.911783540989508728E-16, -1.000000000000000000 ) ) ;
#149 = CARTESIAN_POINT ( 'NONE',  ( 2.793185071074506684E-13, -7.225416114969383207E-15, 80.00000000000000000 ) ) ;
#150 = EDGE_LOOP ( 'NONE', ( #219 ) ) ;
#151 = CIRCLE ( 'NONE', #105, 2.393999999999999684 ) ;
#152 = EDGE_LOOP ( 'NONE', ( #125 ) ) ;
#153 = DIRECTION ( 'NONE',  ( 1.714940057380171697E-30, -1.000000000000000000, 4.911783540989508728E-16 ) ) ;
#154 = CARTESIAN_POINT ( 'NONE',  ( 4.885231259955590439E-14, -1.263712492114123682E-15, 13.99185842870425134 ) ) ;
#155 = LOCAL_TIME ( 11, 3, 14.00000000000000000, #232 ) ;
#156 = VERTEX_POINT ( 'NONE', #174 ) ;
#157 = AXIS2_PLACEMENT_3D ( 'NONE', #54, #223, #200 ) ;
#158 = APPLICATION_PROTOCOL_DEFINITION ( 'international standard', 'config_control_design', 1994, #128 ) ;
#159 = ADVANCED_FACE ( 'NONE', ( #228, #3 ), #24, .T. ) ;
#160 = APPLICATION_PROTOCOL_DEFINITION ( 'international standard', 'config_control_design', 1994, #98 ) ;
#161 = CALENDAR_DATE ( 2021, 26, 11 ) ;
#162 = PRODUCT_DEFINITION_FORMATION_WITH_SPECIFIED_SOURCE ( 'ANY', '', #72, .NOT_KNOWN. ) ;
#163 = CONICAL_SURFACE ( 'NONE', #16, 2.393999999999999684, 0.5235987755982939307 ) ;
#164 = EDGE_LOOP ( 'NONE', ( #92 ) ) ;
#165 = ADVANCED_FACE ( 'NONE', ( #100 ), #190, .T. ) ;
#166 = ORIENTED_EDGE ( 'NONE', *, *, #97, .T. ) ;
#167 = PLANE ( 'NONE',  #239 ) ;
#168 = AXIS2_PLACEMENT_3D ( 'NONE', #206, #84, #63 ) ;
#169 = FACE_BOUND ( 'NONE', #110, .T. ) ;
#170 = DIRECTION ( 'NONE',  ( 3.491481338843133355E-15, -9.031770143711729009E-17, 1.000000000000000000 ) ) ;
#171 = EDGE_CURVE ( 'NONE', #156, #156, #28, .T. ) ;
#172 = CARTESIAN_POINT ( 'NONE',  ( 4.646962790896918807E-14, 2.393999999999998352, 13.30943041052209175 ) ) ;
#173 = CARTESIAN_POINT ( 'NONE',  ( 3.709518055859124188E-30, 5.218515570760396520E-31, 1.062448197729229634E-15 ) ) ;
#174 = CARTESIAN_POINT ( 'NONE',  ( 4.885231259955590439E-14, 1.999999999999990452, 13.99185842870425134 ) ) ;
#175 = CC_DESIGN_APPROVAL ( #62, ( #162 ) ) ;
#176 = DIRECTION ( 'NONE',  ( 0.0000000000000000000, 0.0000000000000000000, 1.000000000000000000 ) ) ;
#177 = APPROVAL_STATUS ( 'not_yet_approved' ) ;
#178 = AXIS2_PLACEMENT_3D ( 'NONE', #173, #209, #231 ) ;
#179 = CARTESIAN_POINT ( 'NONE',  ( 0.0000000000000000000, 0.0000000000000000000, 0.0000000000000000000 ) ) ;
#180 = CC_DESIGN_PERSON_AND_ORGANIZATION_ASSIGNMENT ( #29, #236, ( #55 ) ) ;
#181 = FACE_OUTER_BOUND ( 'NONE', #19, .T. ) ;
#182 = AXIS2_PLACEMENT_3D ( 'NONE', #94, #183, #241 ) ;
#183 = DIRECTION ( 'NONE',  ( -3.491481338843133355E-15, -4.911783540989508728E-16, -1.000000000000000000 ) ) ;
#184 = EDGE_LOOP ( 'NONE', ( #202 ) ) ;
#185 = ORIENTED_EDGE ( 'NONE', *, *, #135, .T. ) ;
#186 = CC_DESIGN_APPROVAL ( #215, ( #211 ) ) ;
#187 = CARTESIAN_POINT ( 'NONE',  ( 2.779219145719134403E-13, -7.189289034394536528E-15, 79.60000000000000853 ) ) ;
#188 = DIRECTION ( 'NONE',  ( -3.491481338843133355E-15, 9.031770143711729009E-17, -1.000000000000000000 ) ) ;
#189 = VERTEX_POINT ( 'NONE', #102 ) ;
#190 = PLANE ( 'NONE',  #8 ) ;
#191 = LOCAL_TIME ( 11, 3, 14.00000000000000000, #69 ) ;
#192 = DATE_AND_TIME ( #161, #87 ) ;
#193 = SECURITY_CLASSIFICATION_LEVEL ( 'unclassified' ) ;
#194 = DATE_TIME_ROLE ( 'classification_date' ) ;
#195 =( NAMED_UNIT ( * ) PLANE_ANGLE_UNIT ( ) SI_UNIT ( $, .RADIAN. ) );
#196 = CLOSED_SHELL ( 'NONE', ( #165, #10, #159, #51 ) ) ;
#197 = DIRECTION ( 'NONE',  ( -1.714940057380171347E-30, 1.000000000000000000, -4.911783540989507741E-16 ) ) ;
#198 = CC_DESIGN_PERSON_AND_ORGANIZATION_ASSIGNMENT ( #213, #48, ( #162 ) ) ;
#199 = APPROVAL_ROLE ( '' ) ;
#200 = DIRECTION ( 'NONE',  ( 3.153425691349006731E-31, 1.000000000000000000, 9.031770143711729009E-17 ) ) ;
#201 = EDGE_LOOP ( 'NONE', ( #31 ) ) ;
#202 = ORIENTED_EDGE ( 'NONE', *, *, #101, .T. ) ;
#203 = ADVANCED_FACE ( 'NONE', ( #21, #230 ), #163, .T. ) ;
#204 = CARTESIAN_POINT ( 'NONE',  ( 4.646962790896917545E-14, 6.537304123034764463E-15, 13.30943041052208997 ) ) ;
#205 = ORGANIZATION ( 'UNSPECIFIED', 'UNSPECIFIED', '' ) ;
#206 = CARTESIAN_POINT ( 'NONE',  ( 3.709518055859124188E-30, 5.218515570760396520E-31, 1.062448197729229634E-15 ) ) ;
#207 = CARTESIAN_POINT ( 'NONE',  ( 4.646962790896919438E-14, 6.537304123034766041E-15, 13.30943041052209352 ) ) ;
#208 = CARTESIAN_POINT ( 'NONE',  ( 2.793185071074506684E-13, -7.225416114969383207E-15, 80.00000000000000000 ) ) ;
#209 = DIRECTION ( 'NONE',  ( -3.491481338843133355E-15, -4.911783540989508728E-16, -1.000000000000000000 ) ) ;
#210 = DATE_AND_TIME ( #140, #4 ) ;
#211 = PRODUCT_DEFINITION ( 'UNKNOWN', '', #162, #229 ) ;
#212 = CALENDAR_DATE ( 2021, 26, 11 ) ;
#213 = PERSON_AND_ORGANIZATION ( #222, #205 ) ;
#214 = PERSON_AND_ORGANIZATION_ROLE ( 'design_supplier' ) ;
#215 = APPROVAL ( #142, 'UNSPECIFIED' ) ;
#216 =( NAMED_UNIT ( * ) SI_UNIT ( $, .STERADIAN. ) SOLID_ANGLE_UNIT ( ) );
#217 = CIRCLE ( 'NONE', #132, 1.999999999999995337 ) ;
#218 = CC_DESIGN_PERSON_AND_ORGANIZATION_ASSIGNMENT ( #88, #89, ( #72 ) ) ;
#219 = ORIENTED_EDGE ( 'NONE', *, *, #101, .F. ) ;
#220 = FACE_OUTER_BOUND ( 'NONE', #18, .T. ) ;
#221 = DIRECTION ( 'NONE',  ( -3.491481338843133355E-15, 9.031770143711729009E-17, -1.000000000000000000 ) ) ;
#222 = PERSON ( 'UNSPECIFIED', 'UNSPECIFIED', 'UNSPECIFIED', ('UNSPECIFIED'), ('UNSPECIFIED'), ('UNSPECIFIED') ) ;
#223 = DIRECTION ( 'NONE',  ( -3.491481338843133355E-15, 9.031770143711729009E-17, -1.000000000000000000 ) ) ;
#224 = ADVANCED_FACE ( 'NONE', ( #169, #139 ), #20, .T. ) ;
#225 = CARTESIAN_POINT ( 'NONE',  ( 1.396592535537257089E-15, 1.964713416395809013E-16, 0.4000000000000010769 ) ) ;
#226 = CC_DESIGN_DATE_AND_TIME_ASSIGNMENT ( #192, #12, ( #211 ) ) ;
#227 = CIRCLE ( 'NONE', #178, 2.163059892324149303 ) ;
#228 = FACE_OUTER_BOUND ( 'NONE', #201, .T. ) ;
#229 = DESIGN_CONTEXT ( 'detailed design', #98, 'design' ) ;
#230 = FACE_OUTER_BOUND ( 'NONE', #96, .T. ) ;
#231 = DIRECTION ( 'NONE',  ( -1.714940057380171347E-30, 1.000000000000000000, -4.911783540989508728E-16 ) ) ;
#232 = COORDINATED_UNIVERSAL_TIME_OFFSET ( 1, 0, .AHEAD. ) ;
#233 =( GEOMETRIC_REPRESENTATION_CONTEXT ( 3 ) GLOBAL_UNCERTAINTY_ASSIGNED_CONTEXT ( ( #40 ) ) GLOBAL_UNIT_ASSIGNED_CONTEXT ( ( #27, #195, #216 ) ) REPRESENTATION_CONTEXT ( 'NONE', 'WORKASPACE' ) );
#234 = PERSON_AND_ORGANIZATION ( #222, #205 ) ;
#235 = MECHANICAL_CONTEXT ( 'NONE', #128, 'mechanical' ) ;
#236 = PERSON_AND_ORGANIZATION_ROLE ( 'classification_officer' ) ;
#237 = CIRCLE ( 'NONE', #80, 1.599999999999994982 ) ;
#238 = ORIENTED_EDGE ( 'NONE', *, *, #58, .T. ) ;
#239 = AXIS2_PLACEMENT_3D ( 'NONE', #242, #78, #61 ) ;
#240 = COORDINATED_UNIVERSAL_TIME_OFFSET ( 1, 0, .AHEAD. ) ;
#241 = DIRECTION ( 'NONE',  ( -1.714940057380171697E-30, 1.000000000000000000, -4.911783540989508728E-16 ) ) ;
#242 = CARTESIAN_POINT ( 'NONE',  ( 4.646962790896917545E-14, 2.393999999999998352, 13.30943041052208997 ) ) ;
#243 = APPROVAL_PERSON_ORGANIZATION ( #30, #90, #199 ) ;
ENDSEC;
END-ISO-10303-21;
