ISO-10303-21;
HEADER;
FILE_DESCRIPTION (( 'STEP AP203' ),
    '1' );
FILE_NAME ('321381.step',
    '2021-11-26T10:03:13',
    ( '' ),
    ( '' ),
    'SwSTEP 2.0',
    'SolidWorks 2019',
    '' );
FILE_SCHEMA (( 'CONFIG_CONTROL_DESIGN' ));
ENDSEC;

DATA;
#1 = PERSON_AND_ORGANIZATION ( #207, #236 ) ;
#2 = APPROVAL_DATE_TIME ( #45, #147 ) ;
#3 = AXIS2_PLACEMENT_3D ( 'NONE', #185, #221, #166 ) ;
#4 = PERSON_AND_ORGANIZATION_ROLE ( 'creator' ) ;
#5 = PERSON_AND_ORGANIZATION ( #207, #236 ) ;
#6 = ORIENTED_EDGE ( 'NONE', *, *, #11, .T. ) ;
#7 = COORDINATED_UNIVERSAL_TIME_OFFSET ( 1, 0, .AHEAD. ) ;
#8 = EDGE_LOOP ( 'NONE', ( #123 ) ) ;
#9 = AXIS2_PLACEMENT_3D ( 'NONE', #58, #239, #133 ) ;
#10 = FACE_OUTER_BOUND ( 'NONE', #174, .T. ) ;
#11 = EDGE_CURVE ( 'NONE', #94, #94, #199, .T. ) ;
#12 = FACE_BOUND ( 'NONE', #84, .T. ) ;
#13 = FACE_OUTER_BOUND ( 'NONE', #190, .T. ) ;
#14 = CARTESIAN_POINT ( 'NONE',  ( 2.793185071074506684E-13, -7.225416114969383207E-15, 80.00000000000000000 ) ) ;
#15 = EDGE_CURVE ( 'NONE', #95, #95, #192, .T. ) ;
#16 = DIRECTION ( 'NONE',  ( -3.153425691349006731E-31, -1.000000000000000000, -9.031770143711729009E-17 ) ) ;
#17 = DIRECTION ( 'NONE',  ( -3.491481338843133355E-15, -4.906996909059746260E-16, -1.000000000000000000 ) ) ;
#18 = APPROVAL ( #83, 'UNSPECIFIED' ) ;
#19 = CARTESIAN_POINT ( 'NONE',  ( 4.885231259955590439E-14, 1.999999999999990452, 13.99185842870425134 ) ) ;
#20 =( NAMED_UNIT ( * ) SI_UNIT ( $, .STERADIAN. ) SOLID_ANGLE_UNIT ( ) );
#21 = CONICAL_SURFACE ( 'NONE', #61, 2.158059892324147633, 0.5235987755982979275 ) ;
#22 = DATE_TIME_ROLE ( 'classification_date' ) ;
#23 = ADVANCED_FACE ( 'NONE', ( #54 ), #235, .T. ) ;
#24 = ORIENTED_EDGE ( 'NONE', *, *, #170, .T. ) ;
#25 = COORDINATED_UNIVERSAL_TIME_OFFSET ( 1, 0, .AHEAD. ) ;
#26 = EDGE_LOOP ( 'NONE', ( #27 ) ) ;
#27 = ORIENTED_EDGE ( 'NONE', *, *, #99, .T. ) ;
#28 = DIRECTION ( 'NONE',  ( 0.0000000000000000000, 1.000000000000000000, 0.0000000000000000000 ) ) ;
#29 = FACE_BOUND ( 'NONE', #118, .T. ) ;
#30 = ADVANCED_FACE ( 'NONE', ( #126, #13 ), #216, .T. ) ;
#31 = DIRECTION ( 'NONE',  ( 3.491481338843133355E-15, 4.906996909059746260E-16, 1.000000000000000000 ) ) ;
#32 = DIRECTION ( 'NONE',  ( -1.713268813774303831E-30, 1.000000000000000000, -4.906996909059745274E-16 ) ) ;
#33 = SECURITY_CLASSIFICATION ( '', '', #212 ) ;
#34 = CARTESIAN_POINT ( 'NONE',  ( 3.697336711776094864E-30, 5.196310120463041026E-31, 1.058959322120040094E-15 ) ) ;
#35 = DIRECTION ( 'NONE',  ( 1.713268813774303831E-30, -1.000000000000000000, 4.906996909059745274E-16 ) ) ;
#36 = DIRECTION ( 'NONE',  ( -3.491481338843133355E-15, -4.906996909059746260E-16, -1.000000000000000000 ) ) ;
#37 = CLOSED_SHELL ( 'NONE', ( #127, #196, #67, #23 ) ) ;
#38 = CC_DESIGN_PERSON_AND_ORGANIZATION_ASSIGNMENT ( #65, #4, ( #144 ) ) ;
#39 = PLANE ( 'NONE',  #56 ) ;
#40 = AXIS2_PLACEMENT_3D ( 'NONE', #78, #17, #220 ) ;
#41 = APPLICATION_PROTOCOL_DEFINITION ( 'international standard', 'config_control_design', 1994, #206 ) ;
#42 = CC_DESIGN_DATE_AND_TIME_ASSIGNMENT ( #187, #22, ( #33 ) ) ;
#43 = ORIENTED_EDGE ( 'NONE', *, *, #182, .F. ) ;
#44 = DIRECTION ( 'NONE',  ( 1.000000000000000000, 0.0000000000000000000, 0.0000000000000000000 ) ) ;
#45 = DATE_AND_TIME ( #211, #179 ) ;
#46 = ADVANCED_FACE ( 'NONE', ( #73, #53 ), #230, .T. ) ;
#47 = PRODUCT_DEFINITION_FORMATION_WITH_SPECIFIED_SOURCE ( 'ANY', '', #76, .NOT_KNOWN. ) ;
#48 = LOCAL_TIME ( 11, 3, 13.00000000000000000, #139 ) ;
#49 = PERSON_AND_ORGANIZATION ( #207, #236 ) ;
#50 = EDGE_LOOP ( 'NONE', ( #176 ) ) ;
#51 = DIRECTION ( 'NONE',  ( -3.491481338843133355E-15, 9.031770143711729009E-17, -1.000000000000000000 ) ) ;
#52 = PLANE ( 'NONE',  #140 ) ;
#53 = FACE_OUTER_BOUND ( 'NONE', #209, .T. ) ;
#54 = FACE_OUTER_BOUND ( 'NONE', #26, .T. ) ;
#55 = CC_DESIGN_PERSON_AND_ORGANIZATION_ASSIGNMENT ( #5, #173, ( #76 ) ) ;
#56 = AXIS2_PLACEMENT_3D ( 'NONE', #14, #80, #16 ) ;
#57 = CARTESIAN_POINT ( 'NONE',  ( -1.848668355888047432E-30, 2.158059892324147633, -5.294796610600200472E-16 ) ) ;
#58 = CARTESIAN_POINT ( 'NONE',  ( 4.885231259955590439E-14, -1.263712492114123682E-15, 13.99185842870425134 ) ) ;
#59 = ADVANCED_FACE ( 'NONE', ( #10 ), #52, .T. ) ;
#60 = CARTESIAN_POINT ( 'NONE',  ( 4.649986502433196942E-14, -1.202859336354183387E-15, 13.31809066455993751 ) ) ;
#61 = AXIS2_PLACEMENT_3D ( 'NONE', #195, #31, #88 ) ;
#62 = APPROVAL_ROLE ( '' ) ;
#63 = APPROVAL_ROLE ( '' ) ;
#64 = CALENDAR_DATE ( 2021, 26, 11 ) ;
#65 = PERSON_AND_ORGANIZATION ( #207, #236 ) ;
#66 = ORIENTED_EDGE ( 'NONE', *, *, #72, .F. ) ;
#67 = ADVANCED_FACE ( 'NONE', ( #125, #29 ), #21, .T. ) ;
#68 = PERSON_AND_ORGANIZATION_ROLE ( 'design_supplier' ) ;
#69 = AXIS2_PLACEMENT_3D ( 'NONE', #233, #150, #218 ) ;
#70 = EDGE_LOOP ( 'NONE', ( #66 ) ) ;
#71 = MANIFOLD_SOLID_BREP ( 'Corps-Déplacer/Copier1[2]', #37 ) ;
#72 = EDGE_CURVE ( 'NONE', #132, #132, #215, .T. ) ;
#73 = FACE_BOUND ( 'NONE', #157, .T. ) ;
#74 = DIRECTION ( 'NONE',  ( -3.491481338843133355E-15, 9.031770143711729009E-17, -1.000000000000000000 ) ) ;
#75 = AXIS2_PLACEMENT_3D ( 'NONE', #152, #181, #201 ) ;
#76 = PRODUCT ( '321381', '321381', '', ( #102 ) ) ;
#77 = CC_DESIGN_APPROVAL ( #18, ( #144 ) ) ;
#78 = CARTESIAN_POINT ( 'NONE',  ( 0.0000000000000000000, 0.0000000000000000000, 0.0000000000000000000 ) ) ;
#79 = DIRECTION ( 'NONE',  ( 0.0000000000000000000, 1.000000000000000000, 0.0000000000000000000 ) ) ;
#80 = DIRECTION ( 'NONE',  ( 3.491481338843133355E-15, -9.031770143711729009E-17, 1.000000000000000000 ) ) ;
#81 = CLOSED_SHELL ( 'NONE', ( #90, #46, #30, #85, #59 ) ) ;
#82 = PERSON_AND_ORGANIZATION ( #207, #236 ) ;
#83 = APPROVAL_STATUS ( 'not_yet_approved' ) ;
#84 = EDGE_LOOP ( 'NONE', ( #193 ) ) ;
#85 = ADVANCED_FACE ( 'NONE', ( #12, #164 ), #105, .T. ) ;
#86 = DATE_AND_TIME ( #64, #134 ) ;
#87 = ORIENTED_EDGE ( 'NONE', *, *, #170, .F. ) ;
#88 = DIRECTION ( 'NONE',  ( 1.713268813774304182E-30, -1.000000000000000000, 4.906996909059746260E-16 ) ) ;
#89 = AXIS2_PLACEMENT_3D ( 'NONE', #106, #91, #178 ) ;
#90 = ADVANCED_FACE ( 'NONE', ( #131 ), #39, .T. ) ;
#91 = DIRECTION ( 'NONE',  ( -3.491481338843133355E-15, 9.031770143711729009E-17, -1.000000000000000000 ) ) ;
#92 = UNCERTAINTY_MEASURE_WITH_UNIT (LENGTH_MEASURE( 1.000000000000000082E-05 ), #203, 'distance_accuracy_value', 'NONE');
#93 = CARTESIAN_POINT ( 'NONE',  ( 4.649986502433196942E-14, 2.388999999999998014, 13.31809066455993751 ) ) ;
#94 = VERTEX_POINT ( 'NONE', #137 ) ;
#95 = VERTEX_POINT ( 'NONE', #171 ) ;
#96 = CC_DESIGN_PERSON_AND_ORGANIZATION_ASSIGNMENT ( #119, #229, ( #47 ) ) ;
#97 = APPLICATION_PROTOCOL_DEFINITION ( 'international standard', 'config_control_design', 1994, #167 ) ;
#98 = EDGE_LOOP ( 'NONE', ( #103 ) ) ;
#99 = EDGE_CURVE ( 'NONE', #108, #108, #186, .T. ) ;
#100 = DATE_TIME_ROLE ( 'creation_date' ) ;
#101 = AXIS2_PLACEMENT_3D ( 'NONE', #57, #198, #32 ) ;
#102 = MECHANICAL_CONTEXT ( 'NONE', #167, 'mechanical' ) ;
#103 = ORIENTED_EDGE ( 'NONE', *, *, #15, .F. ) ;
#104 = ORIENTED_EDGE ( 'NONE', *, *, #72, .T. ) ;
#105 = CONICAL_SURFACE ( 'NONE', #160, 2.388999999999999346, 0.5235987755982935976 ) ;
#106 = CARTESIAN_POINT ( 'NONE',  ( 2.793185071074506684E-13, -7.225416114969383207E-15, 80.00000000000000000 ) ) ;
#107 = DIRECTION ( 'NONE',  ( -1.713268813774304182E-30, 1.000000000000000000, -4.906996909059746260E-16 ) ) ;
#108 = VERTEX_POINT ( 'NONE', #223 ) ;
#109 = CIRCLE ( 'NONE', #75, 2.388999999999991353 ) ;
#110 = FACE_OUTER_BOUND ( 'NONE', #8, .T. ) ;
#111 = DIRECTION ( 'NONE',  ( 3.491481338843133355E-15, 4.906996909059745274E-16, 1.000000000000000000 ) ) ;
#112 = CYLINDRICAL_SURFACE ( 'NONE', #40, 2.388999999999994461 ) ;
#113 = CALENDAR_DATE ( 2021, 26, 11 ) ;
#114 = CIRCLE ( 'NONE', #3, 2.388999999999999346 ) ;
#115 = DIRECTION ( 'NONE',  ( 0.0000000000000000000, 0.0000000000000000000, 1.000000000000000000 ) ) ;
#116 = EDGE_LOOP ( 'NONE', ( #6 ) ) ;
#117 = COORDINATED_UNIVERSAL_TIME_OFFSET ( 1, 0, .AHEAD. ) ;
#118 = EDGE_LOOP ( 'NONE', ( #120 ) ) ;
#119 = PERSON_AND_ORGANIZATION ( #207, #236 ) ;
#120 = ORIENTED_EDGE ( 'NONE', *, *, #99, .F. ) ;
#121 = APPROVAL_PERSON_ORGANIZATION ( #142, #18, #62 ) ;
#122 = PERSON_AND_ORGANIZATION_ROLE ( 'classification_officer' ) ;
#123 = ORIENTED_EDGE ( 'NONE', *, *, #136, .T. ) ;
#124 = DIRECTION ( 'NONE',  ( 0.0000000000000000000, 1.000000000000000000, 0.0000000000000000000 ) ) ;
#125 = FACE_OUTER_BOUND ( 'NONE', #50, .T. ) ;
#126 = FACE_OUTER_BOUND ( 'NONE', #116, .T. ) ;
#127 = ADVANCED_FACE ( 'NONE', ( #154 ), #151, .T. ) ;
#128 = CARTESIAN_POINT ( 'NONE',  ( 2.779219145719134403E-13, -7.189289034394536528E-15, 79.60000000000000853 ) ) ;
#129 = AXIS2_PLACEMENT_3D ( 'NONE', #128, #74, #28 ) ;
#130 = APPROVAL_PERSON_ORGANIZATION ( #82, #191, #63 ) ;
#131 = FACE_OUTER_BOUND ( 'NONE', #70, .T. ) ;
#132 = VERTEX_POINT ( 'NONE', #241 ) ;
#133 = DIRECTION ( 'NONE',  ( 0.0000000000000000000, 1.000000000000000000, 0.0000000000000000000 ) ) ;
#134 = LOCAL_TIME ( 11, 3, 13.00000000000000000, #25 ) ;
#135 = VERTEX_POINT ( 'NONE', #19 ) ;
#136 = EDGE_CURVE ( 'NONE', #200, #200, #109, .T. ) ;
#137 = CARTESIAN_POINT ( 'NONE',  ( 2.779219145719134403E-13, 1.999999999999988010, 79.60000000000000853 ) ) ;
#138 = COORDINATED_UNIVERSAL_TIME_OFFSET ( 1, 0, .AHEAD. ) ;
#139 = COORDINATED_UNIVERSAL_TIME_OFFSET ( 1, 0, .AHEAD. ) ;
#140 = AXIS2_PLACEMENT_3D ( 'NONE', #162, #232, #148 ) ;
#141 = CC_DESIGN_APPROVAL ( #191, ( #33 ) ) ;
#142 = PERSON_AND_ORGANIZATION ( #207, #236 ) ;
#143 = CC_DESIGN_APPROVAL ( #147, ( #47 ) ) ;
#144 = PRODUCT_DEFINITION ( 'UNKNOWN', '', #47, #238 ) ;
#145 = SHAPE_DEFINITION_REPRESENTATION ( #169, #194 ) ;
#146 = MANIFOLD_SOLID_BREP ( 'Corps-Déplacer/Copier1[1]', #81 ) ;
#147 = APPROVAL ( #227, 'UNSPECIFIED' ) ;
#148 = DIRECTION ( 'NONE',  ( 3.153425691349006731E-31, 1.000000000000000000, 9.031770143711729009E-17 ) ) ;
#149 =( GEOMETRIC_REPRESENTATION_CONTEXT ( 3 ) GLOBAL_UNCERTAINTY_ASSIGNED_CONTEXT ( ( #92 ) ) GLOBAL_UNIT_ASSIGNED_CONTEXT ( ( #203, #204, #20 ) ) REPRESENTATION_CONTEXT ( 'NONE', 'WORKASPACE' ) );
#150 = DIRECTION ( 'NONE',  ( -3.491481338843133355E-15, 9.031770143711729009E-17, -1.000000000000000000 ) ) ;
#151 = PLANE ( 'NONE',  #213 ) ;
#152 = CARTESIAN_POINT ( 'NONE',  ( 4.649986502433197573E-14, 6.535182972557308064E-15, 13.31809066455993928 ) ) ;
#153 = LOCAL_TIME ( 11, 3, 13.00000000000000000, #7 ) ;
#154 = FACE_OUTER_BOUND ( 'NONE', #231, .T. ) ;
#155 = APPROVAL_STATUS ( 'not_yet_approved' ) ;
#156 = AXIS2_PLACEMENT_3D ( 'NONE', #214, #51, #124 ) ;
#157 = EDGE_LOOP ( 'NONE', ( #104 ) ) ;
#158 = APPROVAL_ROLE ( '' ) ;
#159 = EDGE_LOOP ( 'NONE', ( #87 ) ) ;
#160 = AXIS2_PLACEMENT_3D ( 'NONE', #60, #180, #79 ) ;
#161 = CC_DESIGN_SECURITY_CLASSIFICATION ( #33, ( #47 ) ) ;
#162 = CARTESIAN_POINT ( 'NONE',  ( 4.649986502433197573E-14, 2.388999999999998014, 13.31809066455993928 ) ) ;
#163 = APPROVAL_DATE_TIME ( #197, #191 ) ;
#164 = FACE_OUTER_BOUND ( 'NONE', #159, .T. ) ;
#165 = DIRECTION ( 'NONE',  ( -1.692948046552197261E-30, 1.000000000000000000, -4.992140601649460221E-16 ) ) ;
#166 = DIRECTION ( 'NONE',  ( 0.0000000000000000000, 1.000000000000000000, 0.0000000000000000000 ) ) ;
#167 = APPLICATION_CONTEXT ( 'configuration controlled 3d designs of mechanical parts and assemblies' ) ;
#168 = VERTEX_POINT ( 'NONE', #222 ) ;
#169 = PRODUCT_DEFINITION_SHAPE ( 'NONE', 'NONE',  #144 ) ;
#170 = EDGE_CURVE ( 'NONE', #168, #168, #114, .T. ) ;
#171 = CARTESIAN_POINT ( 'NONE',  ( 1.396592535537253145E-15, 2.388999999999997570, 0.3999999999999999112 ) ) ;
#172 = CIRCLE ( 'NONE', #9, 1.999999999999991784 ) ;
#173 = PERSON_AND_ORGANIZATION_ROLE ( 'design_owner' ) ;
#174 = EDGE_LOOP ( 'NONE', ( #24 ) ) ;
#175 = CALENDAR_DATE ( 2021, 26, 11 ) ;
#176 = ORIENTED_EDGE ( 'NONE', *, *, #15, .T. ) ;
#177 = DIRECTION ( 'NONE',  ( -3.491481338843133355E-15, -4.906996909059746260E-16, -1.000000000000000000 ) ) ;
#178 = DIRECTION ( 'NONE',  ( 0.0000000000000000000, 1.000000000000000000, 0.0000000000000000000 ) ) ;
#179 = LOCAL_TIME ( 11, 3, 13.00000000000000000, #117 ) ;
#180 = DIRECTION ( 'NONE',  ( -3.491481338843133355E-15, 9.031770143711729009E-17, -1.000000000000000000 ) ) ;
#181 = DIRECTION ( 'NONE',  ( -3.491481338843133355E-15, -4.906996909059746260E-16, -1.000000000000000000 ) ) ;
#182 = EDGE_CURVE ( 'NONE', #135, #135, #172, .T. ) ;
#183 = AXIS2_PLACEMENT_3D ( 'NONE', #237, #177, #165 ) ;
#184 = FACE_OUTER_BOUND ( 'NONE', #98, .T. ) ;
#185 = CARTESIAN_POINT ( 'NONE',  ( 4.649986502433196942E-14, -1.202859336354183387E-15, 13.31809066455993751 ) ) ;
#186 = CIRCLE ( 'NONE', #219, 2.158059892324147633 ) ;
#187 = DATE_AND_TIME ( #113, #240 ) ;
#188 = CC_DESIGN_PERSON_AND_ORGANIZATION_ASSIGNMENT ( #1, #68, ( #47 ) ) ;
#189 = DATE_AND_TIME ( #175, #153 ) ;
#190 = EDGE_LOOP ( 'NONE', ( #43 ) ) ;
#191 = APPROVAL ( #155, 'UNSPECIFIED' ) ;
#192 = CIRCLE ( 'NONE', #183, 2.388999999999997570 ) ;
#193 = ORIENTED_EDGE ( 'NONE', *, *, #182, .T. ) ;
#194 = ADVANCED_BREP_SHAPE_REPRESENTATION ( '321381', ( #146, #71, #202 ), #149 ) ;
#195 = CARTESIAN_POINT ( 'NONE',  ( 3.697336711776094864E-30, 5.196310120463041026E-31, 1.058959322120040094E-15 ) ) ;
#196 = ADVANCED_FACE ( 'NONE', ( #110, #184 ), #112, .T. ) ;
#197 = DATE_AND_TIME ( #208, #48 ) ;
#198 = DIRECTION ( 'NONE',  ( -3.491481338843133355E-15, -4.906996909059745274E-16, -1.000000000000000000 ) ) ;
#199 = CIRCLE ( 'NONE', #156, 1.999999999999995337 ) ;
#200 = VERTEX_POINT ( 'NONE', #93 ) ;
#201 = DIRECTION ( 'NONE',  ( -2.579730356650973911E-30, 1.000000000000000000, -7.261295420581051784E-16 ) ) ;
#202 = AXIS2_PLACEMENT_3D ( 'NONE', #228, #115, #44 ) ;
#203 =( LENGTH_UNIT ( ) NAMED_UNIT ( * ) SI_UNIT ( .MILLI., .METRE. ) );
#204 =( NAMED_UNIT ( * ) PLANE_ANGLE_UNIT ( ) SI_UNIT ( $, .RADIAN. ) );
#205 = APPROVAL_DATE_TIME ( #86, #18 ) ;
#206 = APPLICATION_CONTEXT ( 'configuration controlled 3d designs of mechanical parts and assemblies' ) ;
#207 = PERSON ( 'UNSPECIFIED', 'UNSPECIFIED', 'UNSPECIFIED', ('UNSPECIFIED'), ('UNSPECIFIED'), ('UNSPECIFIED') ) ;
#208 = CALENDAR_DATE ( 2021, 26, 11 ) ;
#209 = EDGE_LOOP ( 'NONE', ( #210 ) ) ;
#210 = ORIENTED_EDGE ( 'NONE', *, *, #11, .F. ) ;
#211 = CALENDAR_DATE ( 2021, 26, 11 ) ;
#212 = SECURITY_CLASSIFICATION_LEVEL ( 'unclassified' ) ;
#213 = AXIS2_PLACEMENT_3D ( 'NONE', #242, #111, #35 ) ;
#214 = CARTESIAN_POINT ( 'NONE',  ( 2.779219145719134403E-13, -7.189289034394536528E-15, 79.60000000000000853 ) ) ;
#215 = CIRCLE ( 'NONE', #89, 1.599999999999994982 ) ;
#216 = CYLINDRICAL_SURFACE ( 'NONE', #69, 1.999999999999993561 ) ;
#217 = PRODUCT_RELATED_PRODUCT_CATEGORY ( 'detail', '', ( #76 ) ) ;
#218 = DIRECTION ( 'NONE',  ( 3.153425691349006731E-31, 1.000000000000000000, 9.031770143711729009E-17 ) ) ;
#219 = AXIS2_PLACEMENT_3D ( 'NONE', #34, #36, #107 ) ;
#220 = DIRECTION ( 'NONE',  ( -1.713268813774303831E-30, 1.000000000000000000, -4.906996909059746260E-16 ) ) ;
#221 = DIRECTION ( 'NONE',  ( -3.491481338843133355E-15, 9.031770143711729009E-17, -1.000000000000000000 ) ) ;
#222 = CARTESIAN_POINT ( 'NONE',  ( 4.649986502433196942E-14, 2.388999999999998014, 13.31809066455993751 ) ) ;
#223 = CARTESIAN_POINT ( 'NONE',  ( 0.0000000000000000000, 2.158059892324147633, 0.0000000000000000000 ) ) ;
#224 = PERSON_AND_ORGANIZATION ( #207, #236 ) ;
#225 = ORIENTED_EDGE ( 'NONE', *, *, #136, .F. ) ;
#226 = CC_DESIGN_DATE_AND_TIME_ASSIGNMENT ( #189, #100, ( #144 ) ) ;
#227 = APPROVAL_STATUS ( 'not_yet_approved' ) ;
#228 = CARTESIAN_POINT ( 'NONE',  ( 0.0000000000000000000, 0.0000000000000000000, 0.0000000000000000000 ) ) ;
#229 = PERSON_AND_ORGANIZATION_ROLE ( 'creator' ) ;
#230 = CONICAL_SURFACE ( 'NONE', #129, 1.999999999999995337, 0.7853981633974516097 ) ;
#231 = EDGE_LOOP ( 'NONE', ( #225 ) ) ;
#232 = DIRECTION ( 'NONE',  ( -3.491481338843133355E-15, 9.031770143711729009E-17, -1.000000000000000000 ) ) ;
#233 = CARTESIAN_POINT ( 'NONE',  ( 0.0000000000000000000, 0.0000000000000000000, 0.0000000000000000000 ) ) ;
#234 = CC_DESIGN_PERSON_AND_ORGANIZATION_ASSIGNMENT ( #49, #122, ( #33 ) ) ;
#235 = PLANE ( 'NONE',  #101 ) ;
#236 = ORGANIZATION ( 'UNSPECIFIED', 'UNSPECIFIED', '' ) ;
#237 = CARTESIAN_POINT ( 'NONE',  ( 1.396592535537257089E-15, 1.962798763623903977E-16, 0.4000000000000010769 ) ) ;
#238 = DESIGN_CONTEXT ( 'detailed design', #206, 'design' ) ;
#239 = DIRECTION ( 'NONE',  ( -3.491481338843133355E-15, 9.031770143711729009E-17, -1.000000000000000000 ) ) ;
#240 = LOCAL_TIME ( 11, 3, 13.00000000000000000, #138 ) ;
#241 = CARTESIAN_POINT ( 'NONE',  ( 2.793185071074506684E-13, 1.599999999999987876, 80.00000000000000000 ) ) ;
#242 = CARTESIAN_POINT ( 'NONE',  ( 4.649986502433197573E-14, 6.535182972557308064E-15, 13.31809066455993928 ) ) ;
#243 = APPROVAL_PERSON_ORGANIZATION ( #224, #147, #158 ) ;
ENDSEC;
END-ISO-10303-21;
