ISO-10303-21;
HEADER;
FILE_DESCRIPTION (( 'STEP AP203' ),
    '1' );
FILE_NAME ('321380.step',
    '2021-11-26T10:03:13',
    ( '' ),
    ( '' ),
    'SwSTEP 2.0',
    'SolidWorks 2019',
    '' );
FILE_SCHEMA (( 'CONFIG_CONTROL_DESIGN' ));
ENDSEC;

DATA;
#1 = DIRECTION ( 'NONE',  ( 0.0000000000000000000, 1.000000000000000000, 0.0000000000000000000 ) ) ;
#2 = CIRCLE ( 'NONE', #222, 1.999999999999991784 ) ;
#3 = LOCAL_TIME ( 11, 3, 13.00000000000000000, #128 ) ;
#4 = CARTESIAN_POINT ( 'NONE',  ( 2.793185071074506684E-13, -7.225416114969383207E-15, 80.00000000000000000 ) ) ;
#5 = CARTESIAN_POINT ( 'NONE',  ( 3.685176756750574626E-30, 5.174174667586752887E-31, 1.055476572580399491E-15 ) ) ;
#6 = EDGE_LOOP ( 'NONE', ( #33 ) ) ;
#7 = DIRECTION ( 'NONE',  ( 0.0000000000000000000, 1.000000000000000000, 0.0000000000000000000 ) ) ;
#8 = LOCAL_TIME ( 11, 3, 13.00000000000000000, #13 ) ;
#9 = APPLICATION_CONTEXT ( 'configuration controlled 3d designs of mechanical parts and assemblies' ) ;
#10 = DATE_AND_TIME ( #237, #206 ) ;
#11 = ORIENTED_EDGE ( 'NONE', *, *, #61, .F. ) ;
#12 = PERSON_AND_ORGANIZATION ( #184, #185 ) ;
#13 = COORDINATED_UNIVERSAL_TIME_OFFSET ( 1, 0, .AHEAD. ) ;
#14 = CC_DESIGN_DATE_AND_TIME_ASSIGNMENT ( #159, #51, ( #112 ) ) ;
#15 = ORIENTED_EDGE ( 'NONE', *, *, #163, .F. ) ;
#16 = DIRECTION ( 'NONE',  ( 1.711599742249883596E-30, -1.000000000000000000, 4.902216498218502648E-16 ) ) ;
#17 = DATE_AND_TIME ( #150, #3 ) ;
#18 = CARTESIAN_POINT ( 'NONE',  ( 4.653010213969473815E-14, -1.203641510592743078E-15, 13.32675091859778149 ) ) ;
#19 = DIRECTION ( 'NONE',  ( -3.491481338843133355E-15, 9.031770143711729009E-17, -1.000000000000000000 ) ) ;
#20 = ADVANCED_BREP_SHAPE_REPRESENTATION ( '321380', ( #212, #211, #106 ), #102 ) ;
#21 = CARTESIAN_POINT ( 'NONE',  ( 2.779219145719134403E-13, -7.189289034394536528E-15, 79.60000000000000853 ) ) ;
#22 = VERTEX_POINT ( 'NONE', #47 ) ;
#23 = CARTESIAN_POINT ( 'NONE',  ( 4.653010213969473815E-14, 2.383999999999998121, 13.32675091859778149 ) ) ;
#24 = CC_DESIGN_SECURITY_CLASSIFICATION ( #49, ( #114 ) ) ;
#25 = VERTEX_POINT ( 'NONE', #207 ) ;
#26 = VERTEX_POINT ( 'NONE', #137 ) ;
#27 = DATE_AND_TIME ( #122, #87 ) ;
#28 = APPROVAL_DATE_TIME ( #27, #233 ) ;
#29 = ADVANCED_FACE ( 'NONE', ( #241, #220 ), #75, .T. ) ;
#30 = DATE_AND_TIME ( #138, #130 ) ;
#31 = CIRCLE ( 'NONE', #41, 2.383999999999998565 ) ;
#32 = COORDINATED_UNIVERSAL_TIME_OFFSET ( 1, 0, .AHEAD. ) ;
#33 = ORIENTED_EDGE ( 'NONE', *, *, #210, .T. ) ;
#34 = CARTESIAN_POINT ( 'NONE',  ( 4.653010213969473184E-14, 2.383999999999998121, 13.32675091859777972 ) ) ;
#35 = SHAPE_DEFINITION_REPRESENTATION ( #95, #20 ) ;
#36 = AXIS2_PLACEMENT_3D ( 'NONE', #4, #186, #183 ) ;
#37 = DIRECTION ( 'NONE',  ( 1.711599742249883946E-30, -1.000000000000000000, 4.902216498218502648E-16 ) ) ;
#38 = DIRECTION ( 'NONE',  ( -3.491481338843133355E-15, 9.031770143711729009E-17, -1.000000000000000000 ) ) ;
#39 = PLANE ( 'NONE',  #139 ) ;
#40 = FACE_OUTER_BOUND ( 'NONE', #85, .T. ) ;
#41 = AXIS2_PLACEMENT_3D ( 'NONE', #57, #197, #77 ) ;
#42 = DIRECTION ( 'NONE',  ( 1.000000000000000000, 0.0000000000000000000, 0.0000000000000000000 ) ) ;
#43 = PERSON_AND_ORGANIZATION ( #184, #185 ) ;
#44 = APPLICATION_PROTOCOL_DEFINITION ( 'international standard', 'config_control_design', 1994, #239 ) ;
#45 = ADVANCED_FACE ( 'NONE', ( #164 ), #144, .T. ) ;
#46 = CONICAL_SURFACE ( 'NONE', #243, 2.383999999999999453, 0.5235987755982931535 ) ;
#47 = CARTESIAN_POINT ( 'NONE',  ( 2.793185071074506684E-13, 1.599999999999987876, 80.00000000000000000 ) ) ;
#48 = APPROVAL_STATUS ( 'not_yet_approved' ) ;
#49 = SECURITY_CLASSIFICATION ( '', '', #68 ) ;
#50 = DATE_TIME_ROLE ( 'classification_date' ) ;
#51 = DATE_TIME_ROLE ( 'creation_date' ) ;
#52 = ADVANCED_FACE ( 'NONE', ( #181, #219 ), #142, .T. ) ;
#53 = CLOSED_SHELL ( 'NONE', ( #104, #52, #29, #202, #191 ) ) ;
#54 = APPROVAL_STATUS ( 'not_yet_approved' ) ;
#55 = ORIENTED_EDGE ( 'NONE', *, *, #214, .T. ) ;
#56 = PLANE ( 'NONE',  #90 ) ;
#57 = CARTESIAN_POINT ( 'NONE',  ( 1.396592535537257089E-15, 1.960886599287406581E-16, 0.4000000000000010769 ) ) ;
#58 = DIRECTION ( 'NONE',  ( -3.491481338843133355E-15, 9.031770143711729009E-17, -1.000000000000000000 ) ) ;
#59 = EDGE_LOOP ( 'NONE', ( #11 ) ) ;
#60 = CARTESIAN_POINT ( 'NONE',  ( 4.653010213969474446E-14, 6.533061822079863497E-15, 13.32675091859778327 ) ) ;
#61 = EDGE_CURVE ( 'NONE', #117, #117, #31, .T. ) ;
#62 = VERTEX_POINT ( 'NONE', #98 ) ;
#63 = AXIS2_PLACEMENT_3D ( 'NONE', #21, #146, #221 ) ;
#64 = CARTESIAN_POINT ( 'NONE',  ( 1.396592535537253145E-15, 2.383999999999998565, 0.3999999999999999112 ) ) ;
#65 = AXIS2_PLACEMENT_3D ( 'NONE', #110, #115, #131 ) ;
#66 = APPROVAL_PERSON_ORGANIZATION ( #125, #121, #200 ) ;
#67 = EDGE_LOOP ( 'NONE', ( #223 ) ) ;
#68 = SECURITY_CLASSIFICATION_LEVEL ( 'unclassified' ) ;
#69 = COORDINATED_UNIVERSAL_TIME_OFFSET ( 1, 0, .AHEAD. ) ;
#70 = AXIS2_PLACEMENT_3D ( 'NONE', #132, #201, #175 ) ;
#71 = CC_DESIGN_PERSON_AND_ORGANIZATION_ASSIGNMENT ( #157, #216, ( #114 ) ) ;
#72 = EDGE_LOOP ( 'NONE', ( #208 ) ) ;
#73 = ORIENTED_EDGE ( 'NONE', *, *, #61, .T. ) ;
#74 = CIRCLE ( 'NONE', #36, 1.599999999999994982 ) ;
#75 = CYLINDRICAL_SURFACE ( 'NONE', #70, 1.999999999999993561 ) ;
#76 = ADVANCED_FACE ( 'NONE', ( #182 ), #56, .T. ) ;
#77 = DIRECTION ( 'NONE',  ( -1.696498692622985503E-30, 1.000000000000000000, -5.002610695193186242E-16 ) ) ;
#78 = CARTESIAN_POINT ( 'NONE',  ( 3.685176756750574626E-30, 5.174174667586752887E-31, 1.055476572580399491E-15 ) ) ;
#79 = AXIS2_PLACEMENT_3D ( 'NONE', #60, #162, #145 ) ;
#80 = CARTESIAN_POINT ( 'NONE',  ( 4.885231259955590439E-14, -1.263712492114123682E-15, 13.99185842870425134 ) ) ;
#81 = APPROVAL_PERSON_ORGANIZATION ( #12, #233, #171 ) ;
#82 = DIRECTION ( 'NONE',  ( -3.153425691349006731E-31, -1.000000000000000000, -9.031770143711729009E-17 ) ) ;
#83 = DIRECTION ( 'NONE',  ( -3.491481338843133355E-15, 9.031770143711729009E-17, -1.000000000000000000 ) ) ;
#84 = DIRECTION ( 'NONE',  ( -3.491481338843133355E-15, -4.902216498218502648E-16, -1.000000000000000000 ) ) ;
#85 = EDGE_LOOP ( 'NONE', ( #73 ) ) ;
#86 = CYLINDRICAL_SURFACE ( 'NONE', #199, 2.383999999999995012 ) ;
#87 = LOCAL_TIME ( 11, 3, 13.00000000000000000, #32 ) ;
#88 = CC_DESIGN_PERSON_AND_ORGANIZATION_ASSIGNMENT ( #231, #213, ( #114 ) ) ;
#89 = PERSON_AND_ORGANIZATION ( #184, #185 ) ;
#90 = AXIS2_PLACEMENT_3D ( 'NONE', #240, #97, #16 ) ;
#91 = EDGE_CURVE ( 'NONE', #62, #62, #2, .T. ) ;
#92 = PERSON_AND_ORGANIZATION_ROLE ( 'creator' ) ;
#93 = FACE_OUTER_BOUND ( 'NONE', #67, .T. ) ;
#94 = FACE_OUTER_BOUND ( 'NONE', #215, .T. ) ;
#95 = PRODUCT_DEFINITION_SHAPE ( 'NONE', 'NONE',  #112 ) ;
#96 = CC_DESIGN_PERSON_AND_ORGANIZATION_ASSIGNMENT ( #43, #169, ( #161 ) ) ;
#97 = DIRECTION ( 'NONE',  ( 3.491481338843133355E-15, 4.902216498218502648E-16, 1.000000000000000000 ) ) ;
#98 = CARTESIAN_POINT ( 'NONE',  ( 4.885231259955590439E-14, 1.999999999999990452, 13.99185842870425134 ) ) ;
#99 = CARTESIAN_POINT ( 'NONE',  ( 0.0000000000000000000, 0.0000000000000000000, 0.0000000000000000000 ) ) ;
#100 = CC_DESIGN_PERSON_AND_ORGANIZATION_ASSIGNMENT ( #89, #158, ( #49 ) ) ;
#101 = AXIS2_PLACEMENT_3D ( 'NONE', #133, #129, #108 ) ;
#102 =( GEOMETRIC_REPRESENTATION_CONTEXT ( 3 ) GLOBAL_UNCERTAINTY_ASSIGNED_CONTEXT ( ( #180 ) ) GLOBAL_UNIT_ASSIGNED_CONTEXT ( ( #135, #209, #205 ) ) REPRESENTATION_CONTEXT ( 'NONE', 'WORKASPACE' ) );
#103 = CARTESIAN_POINT ( 'NONE',  ( -6.842277657836020854E-46, 2.153059892324148628, 0.0000000000000000000 ) ) ;
#104 = ADVANCED_FACE ( 'NONE', ( #94 ), #39, .T. ) ;
#105 = PERSON_AND_ORGANIZATION ( #184, #185 ) ;
#106 = AXIS2_PLACEMENT_3D ( 'NONE', #204, #227, #42 ) ;
#107 = EDGE_CURVE ( 'NONE', #168, #168, #174, .T. ) ;
#108 = DIRECTION ( 'NONE',  ( -1.711599742249883596E-30, 1.000000000000000000, -4.902216498218502648E-16 ) ) ;
#109 = CC_DESIGN_APPROVAL ( #230, ( #114 ) ) ;
#110 = CARTESIAN_POINT ( 'NONE',  ( 4.653010213969473815E-14, -1.203641510592743078E-15, 13.32675091859778149 ) ) ;
#111 = DIRECTION ( 'NONE',  ( 3.153425691349006731E-31, 1.000000000000000000, 9.031770143711729009E-17 ) ) ;
#112 = PRODUCT_DEFINITION ( 'UNKNOWN', '', #114, #134 ) ;
#113 = ORIENTED_EDGE ( 'NONE', *, *, #91, .F. ) ;
#114 = PRODUCT_DEFINITION_FORMATION_WITH_SPECIFIED_SOURCE ( 'ANY', '', #161, .NOT_KNOWN. ) ;
#115 = DIRECTION ( 'NONE',  ( -3.491481338843133355E-15, 9.031770143711729009E-17, -1.000000000000000000 ) ) ;
#116 = CARTESIAN_POINT ( 'NONE',  ( 2.779219145719134403E-13, -7.189289034394536528E-15, 79.60000000000000853 ) ) ;
#117 = VERTEX_POINT ( 'NONE', #64 ) ;
#118 = CC_DESIGN_APPROVAL ( #233, ( #112 ) ) ;
#119 = ORIENTED_EDGE ( 'NONE', *, *, #226, .T. ) ;
#120 = DIRECTION ( 'NONE',  ( 0.0000000000000000000, 1.000000000000000000, 0.0000000000000000000 ) ) ;
#121 = APPROVAL ( #189, 'UNSPECIFIED' ) ;
#122 = CALENDAR_DATE ( 2021, 26, 11 ) ;
#123 = AXIS2_PLACEMENT_3D ( 'NONE', #78, #224, #37 ) ;
#124 = CALENDAR_DATE ( 2021, 26, 11 ) ;
#125 = PERSON_AND_ORGANIZATION ( #184, #185 ) ;
#126 = ORIENTED_EDGE ( 'NONE', *, *, #210, .F. ) ;
#127 = DIRECTION ( 'NONE',  ( 3.491481338843133355E-15, -9.031770143711729009E-17, 1.000000000000000000 ) ) ;
#128 = COORDINATED_UNIVERSAL_TIME_OFFSET ( 1, 0, .AHEAD. ) ;
#129 = DIRECTION ( 'NONE',  ( -3.491481338843133355E-15, -4.902216498218502648E-16, -1.000000000000000000 ) ) ;
#130 = LOCAL_TIME ( 11, 3, 13.00000000000000000, #69 ) ;
#131 = DIRECTION ( 'NONE',  ( 0.0000000000000000000, 1.000000000000000000, 0.0000000000000000000 ) ) ;
#132 = CARTESIAN_POINT ( 'NONE',  ( 0.0000000000000000000, 0.0000000000000000000, 0.0000000000000000000 ) ) ;
#133 = CARTESIAN_POINT ( 'NONE',  ( -1.842588378375287313E-30, 2.153059892324148628, -5.277382862901997457E-16 ) ) ;
#134 = DESIGN_CONTEXT ( 'detailed design', #9, 'design' ) ;
#135 =( LENGTH_UNIT ( ) NAMED_UNIT ( * ) SI_UNIT ( .MILLI., .METRE. ) );
#136 = EDGE_LOOP ( 'NONE', ( #113 ) ) ;
#137 = CARTESIAN_POINT ( 'NONE',  ( 4.653010213969473815E-14, 2.383999999999998121, 13.32675091859778149 ) ) ;
#138 = CALENDAR_DATE ( 2021, 26, 11 ) ;
#139 = AXIS2_PLACEMENT_3D ( 'NONE', #238, #127, #82 ) ;
#140 = ORIENTED_EDGE ( 'NONE', *, *, #107, .F. ) ;
#141 = APPROVAL_DATE_TIME ( #10, #230 ) ;
#142 = CONICAL_SURFACE ( 'NONE', #63, 1.999999999999995337, 0.7853981633974516097 ) ;
#143 = ADVANCED_FACE ( 'NONE', ( #40, #151 ), #147, .T. ) ;
#144 = PLANE ( 'NONE',  #101 ) ;
#145 = DIRECTION ( 'NONE',  ( -2.585140864949319016E-30, 1.000000000000000000, -7.276524647553746777E-16 ) ) ;
#146 = DIRECTION ( 'NONE',  ( -3.491481338843133355E-15, 9.031770143711729009E-17, -1.000000000000000000 ) ) ;
#147 = CONICAL_SURFACE ( 'NONE', #123, 2.153059892324148628, 0.5235987755982978165 ) ;
#148 = APPROVAL_DATE_TIME ( #17, #121 ) ;
#149 = EDGE_LOOP ( 'NONE', ( #126 ) ) ;
#150 = CALENDAR_DATE ( 2021, 26, 11 ) ;
#151 = FACE_BOUND ( 'NONE', #165, .T. ) ;
#152 = FACE_OUTER_BOUND ( 'NONE', #59, .T. ) ;
#153 = MECHANICAL_CONTEXT ( 'NONE', #239, 'mechanical' ) ;
#154 = DIRECTION ( 'NONE',  ( -1.711599742249883946E-30, 1.000000000000000000, -4.902216498218502648E-16 ) ) ;
#155 = EDGE_LOOP ( 'NONE', ( #15 ) ) ;
#156 = DIRECTION ( 'NONE',  ( -1.711599742249883596E-30, 1.000000000000000000, -4.902216498218503634E-16 ) ) ;
#157 = PERSON_AND_ORGANIZATION ( #184, #185 ) ;
#158 = PERSON_AND_ORGANIZATION_ROLE ( 'classification_officer' ) ;
#159 = DATE_AND_TIME ( #124, #8 ) ;
#160 = CC_DESIGN_DATE_AND_TIME_ASSIGNMENT ( #30, #50, ( #49 ) ) ;
#161 = PRODUCT ( '321380', '321380', '', ( #153 ) ) ;
#162 = DIRECTION ( 'NONE',  ( -3.491481338843133355E-15, -4.902216498218502648E-16, -1.000000000000000000 ) ) ;
#163 = EDGE_CURVE ( 'NONE', #26, #26, #166, .T. ) ;
#164 = FACE_OUTER_BOUND ( 'NONE', #190, .T. ) ;
#165 = EDGE_LOOP ( 'NONE', ( #195 ) ) ;
#166 = CIRCLE ( 'NONE', #65, 2.383999999999999453 ) ;
#167 = ORIENTED_EDGE ( 'NONE', *, *, #214, .F. ) ;
#168 = VERTEX_POINT ( 'NONE', #23 ) ;
#169 = PERSON_AND_ORGANIZATION_ROLE ( 'design_owner' ) ;
#170 = AXIS2_PLACEMENT_3D ( 'NONE', #116, #83, #120 ) ;
#171 = APPROVAL_ROLE ( '' ) ;
#172 = EDGE_LOOP ( 'NONE', ( #236 ) ) ;
#173 = PERSON_AND_ORGANIZATION ( #184, #185 ) ;
#174 = CIRCLE ( 'NONE', #79, 2.383999999999991459 ) ;
#175 = DIRECTION ( 'NONE',  ( 3.153425691349006731E-31, 1.000000000000000000, 9.031770143711729009E-17 ) ) ;
#176 = CC_DESIGN_PERSON_AND_ORGANIZATION_ASSIGNMENT ( #105, #92, ( #112 ) ) ;
#177 = CLOSED_SHELL ( 'NONE', ( #76, #242, #143, #45 ) ) ;
#178 = FACE_OUTER_BOUND ( 'NONE', #155, .T. ) ;
#179 = FACE_BOUND ( 'NONE', #72, .T. ) ;
#180 = UNCERTAINTY_MEASURE_WITH_UNIT (LENGTH_MEASURE( 1.000000000000000082E-05 ), #135, 'distance_accuracy_value', 'NONE');
#181 = FACE_BOUND ( 'NONE', #188, .T. ) ;
#182 = FACE_OUTER_BOUND ( 'NONE', #217, .T. ) ;
#183 = DIRECTION ( 'NONE',  ( 0.0000000000000000000, 1.000000000000000000, 0.0000000000000000000 ) ) ;
#184 = PERSON ( 'UNSPECIFIED', 'UNSPECIFIED', 'UNSPECIFIED', ('UNSPECIFIED'), ('UNSPECIFIED'), ('UNSPECIFIED') ) ;
#185 = ORGANIZATION ( 'UNSPECIFIED', 'UNSPECIFIED', '' ) ;
#186 = DIRECTION ( 'NONE',  ( -3.491481338843133355E-15, 9.031770143711729009E-17, -1.000000000000000000 ) ) ;
#187 = AXIS2_PLACEMENT_3D ( 'NONE', #34, #38, #111 ) ;
#188 = EDGE_LOOP ( 'NONE', ( #55 ) ) ;
#189 = APPROVAL_STATUS ( 'not_yet_approved' ) ;
#190 = EDGE_LOOP ( 'NONE', ( #119 ) ) ;
#191 = ADVANCED_FACE ( 'NONE', ( #93 ), #196, .T. ) ;
#192 = APPLICATION_PROTOCOL_DEFINITION ( 'international standard', 'config_control_design', 1994, #9 ) ;
#193 = AXIS2_PLACEMENT_3D ( 'NONE', #5, #84, #154 ) ;
#194 = APPROVAL_PERSON_ORGANIZATION ( #173, #230, #234 ) ;
#195 = ORIENTED_EDGE ( 'NONE', *, *, #226, .F. ) ;
#196 = PLANE ( 'NONE',  #187 ) ;
#197 = DIRECTION ( 'NONE',  ( -3.491481338843133355E-15, -4.902216498218502648E-16, -1.000000000000000000 ) ) ;
#198 = CIRCLE ( 'NONE', #170, 1.999999999999995337 ) ;
#199 = AXIS2_PLACEMENT_3D ( 'NONE', #99, #225, #156 ) ;
#200 = APPROVAL_ROLE ( '' ) ;
#201 = DIRECTION ( 'NONE',  ( -3.491481338843133355E-15, 9.031770143711729009E-17, -1.000000000000000000 ) ) ;
#202 = ADVANCED_FACE ( 'NONE', ( #179, #178 ), #46, .T. ) ;
#203 = CIRCLE ( 'NONE', #193, 2.153059892324148628 ) ;
#204 = CARTESIAN_POINT ( 'NONE',  ( 0.0000000000000000000, 0.0000000000000000000, 0.0000000000000000000 ) ) ;
#205 =( NAMED_UNIT ( * ) SI_UNIT ( $, .STERADIAN. ) SOLID_ANGLE_UNIT ( ) );
#206 = LOCAL_TIME ( 11, 3, 13.00000000000000000, #232 ) ;
#207 = CARTESIAN_POINT ( 'NONE',  ( 2.779219145719134403E-13, 1.999999999999988010, 79.60000000000000853 ) ) ;
#208 = ORIENTED_EDGE ( 'NONE', *, *, #91, .T. ) ;
#209 =( NAMED_UNIT ( * ) PLANE_ANGLE_UNIT ( ) SI_UNIT ( $, .RADIAN. ) );
#210 = EDGE_CURVE ( 'NONE', #25, #25, #198, .T. ) ;
#211 = MANIFOLD_SOLID_BREP ( 'Corps-Déplacer/Copier1[2]', #177 ) ;
#212 = MANIFOLD_SOLID_BREP ( 'Corps-Déplacer/Copier1[1]', #53 ) ;
#213 = PERSON_AND_ORGANIZATION_ROLE ( 'design_supplier' ) ;
#214 = EDGE_CURVE ( 'NONE', #22, #22, #74, .T. ) ;
#215 = EDGE_LOOP ( 'NONE', ( #167 ) ) ;
#216 = PERSON_AND_ORGANIZATION_ROLE ( 'creator' ) ;
#217 = EDGE_LOOP ( 'NONE', ( #140 ) ) ;
#218 = PRODUCT_RELATED_PRODUCT_CATEGORY ( 'detail', '', ( #161 ) ) ;
#219 = FACE_OUTER_BOUND ( 'NONE', #149, .T. ) ;
#220 = FACE_OUTER_BOUND ( 'NONE', #136, .T. ) ;
#221 = DIRECTION ( 'NONE',  ( 0.0000000000000000000, 1.000000000000000000, 0.0000000000000000000 ) ) ;
#222 = AXIS2_PLACEMENT_3D ( 'NONE', #80, #58, #1 ) ;
#223 = ORIENTED_EDGE ( 'NONE', *, *, #163, .T. ) ;
#224 = DIRECTION ( 'NONE',  ( 3.491481338843133355E-15, 4.902216498218502648E-16, 1.000000000000000000 ) ) ;
#225 = DIRECTION ( 'NONE',  ( -3.491481338843133355E-15, -4.902216498218502648E-16, -1.000000000000000000 ) ) ;
#226 = EDGE_CURVE ( 'NONE', #228, #228, #203, .T. ) ;
#227 = DIRECTION ( 'NONE',  ( 0.0000000000000000000, 0.0000000000000000000, 1.000000000000000000 ) ) ;
#228 = VERTEX_POINT ( 'NONE', #103 ) ;
#229 = FACE_OUTER_BOUND ( 'NONE', #172, .T. ) ;
#230 = APPROVAL ( #54, 'UNSPECIFIED' ) ;
#231 = PERSON_AND_ORGANIZATION ( #184, #185 ) ;
#232 = COORDINATED_UNIVERSAL_TIME_OFFSET ( 1, 0, .AHEAD. ) ;
#233 = APPROVAL ( #48, 'UNSPECIFIED' ) ;
#234 = APPROVAL_ROLE ( '' ) ;
#235 = CC_DESIGN_APPROVAL ( #121, ( #49 ) ) ;
#236 = ORIENTED_EDGE ( 'NONE', *, *, #107, .T. ) ;
#237 = CALENDAR_DATE ( 2021, 26, 11 ) ;
#238 = CARTESIAN_POINT ( 'NONE',  ( 2.793185071074506684E-13, -7.225416114969383207E-15, 80.00000000000000000 ) ) ;
#239 = APPLICATION_CONTEXT ( 'configuration controlled 3d designs of mechanical parts and assemblies' ) ;
#240 = CARTESIAN_POINT ( 'NONE',  ( 4.653010213969473184E-14, 6.533061822079862709E-15, 13.32675091859777972 ) ) ;
#241 = FACE_OUTER_BOUND ( 'NONE', #6, .T. ) ;
#242 = ADVANCED_FACE ( 'NONE', ( #229, #152 ), #86, .T. ) ;
#243 = AXIS2_PLACEMENT_3D ( 'NONE', #18, #19, #7 ) ;
ENDSEC;
END-ISO-10303-21;
