ISO-10303-21;
HEADER;
FILE_DESCRIPTION (( 'STEP AP203' ),
    '1' );
FILE_NAME ('321379.step',
    '2021-11-26T10:03:12',
    ( '' ),
    ( '' ),
    'SwSTEP 2.0',
    'SolidWorks 2019',
    '' );
FILE_SCHEMA (( 'CONFIG_CONTROL_DESIGN' ));
ENDSEC;

DATA;
#1 = PERSON_AND_ORGANIZATION ( #139, #221 ) ;
#2 = PLANE ( 'NONE',  #3 ) ;
#3 = AXIS2_PLACEMENT_3D ( 'NONE', #228, #237, #148 ) ;
#4 = CIRCLE ( 'NONE', #199, 2.378999999999997783 ) ;
#5 = CARTESIAN_POINT ( 'NONE',  ( 0.0000000000000000000, 0.0000000000000000000, 0.0000000000000000000 ) ) ;
#6 = PRODUCT_DEFINITION ( 'UNKNOWN', '', #234, #63 ) ;
#7 = CARTESIAN_POINT ( 'NONE',  ( 6.842277657836020854E-46, 2.148059892324148290, 0.0000000000000000000 ) ) ;
#8 = CC_DESIGN_APPROVAL ( #89, ( #234 ) ) ;
#9 = CC_DESIGN_PERSON_AND_ORGANIZATION_ASSIGNMENT ( #127, #209, ( #234 ) ) ;
#10 = VERTEX_POINT ( 'NONE', #49 ) ;
#11 = CC_DESIGN_PERSON_AND_ORGANIZATION_ASSIGNMENT ( #1, #55, ( #6 ) ) ;
#12 = CARTESIAN_POINT ( 'NONE',  ( 2.793185071074506684E-13, -7.225416114969383207E-15, 80.00000000000000000 ) ) ;
#13 =( NAMED_UNIT ( * ) SI_UNIT ( $, .STERADIAN. ) SOLID_ANGLE_UNIT ( ) );
#14 = DIRECTION ( 'NONE',  ( -1.709932838575139918E-30, 1.000000000000000000, -4.897442296345507923E-16 ) ) ;
#15 = DATE_AND_TIME ( #71, #25 ) ;
#16 = DIRECTION ( 'NONE',  ( 0.0000000000000000000, 1.000000000000000000, 0.0000000000000000000 ) ) ;
#17 = ORIENTED_EDGE ( 'NONE', *, *, #141, .F. ) ;
#18 = DIRECTION ( 'NONE',  ( 0.0000000000000000000, 0.0000000000000000000, 1.000000000000000000 ) ) ;
#19 = ORIENTED_EDGE ( 'NONE', *, *, #232, .T. ) ;
#20 = CALENDAR_DATE ( 2021, 26, 11 ) ;
#21 = PERSON_AND_ORGANIZATION_ROLE ( 'classification_officer' ) ;
#22 = PERSON_AND_ORGANIZATION ( #139, #221 ) ;
#23 = FACE_OUTER_BOUND ( 'NONE', #78, .T. ) ;
#24 = DIRECTION ( 'NONE',  ( -3.491481338843133355E-15, 9.031770143711729009E-17, -1.000000000000000000 ) ) ;
#25 = LOCAL_TIME ( 11, 3, 12.00000000000000000, #146 ) ;
#26 = ADVANCED_FACE ( 'NONE', ( #74 ), #2, .T. ) ;
#27 = UNCERTAINTY_MEASURE_WITH_UNIT (LENGTH_MEASURE( 1.000000000000000082E-05 ), #202, 'distance_accuracy_value', 'NONE');
#28 = CARTESIAN_POINT ( 'NONE',  ( 1.396592535537256892E-15, 1.958976918538208445E-16, 0.4000000000000010214 ) ) ;
#29 = CARTESIAN_POINT ( 'NONE',  ( 4.656033925505750689E-14, -1.204423684831302374E-15, 13.33541117263562548 ) ) ;
#30 = ADVANCED_FACE ( 'NONE', ( #58, #133 ), #239, .T. ) ;
#31 = CC_DESIGN_APPROVAL ( #109, ( #186 ) ) ;
#32 = DIRECTION ( 'NONE',  ( 1.000000000000000000, 0.0000000000000000000, 0.0000000000000000000 ) ) ;
#33 = CARTESIAN_POINT ( 'NONE',  ( 2.779219145719134403E-13, -7.189289034394536528E-15, 79.60000000000000853 ) ) ;
#34 = AXIS2_PLACEMENT_3D ( 'NONE', #36, #241, #147 ) ;
#35 = AXIS2_PLACEMENT_3D ( 'NONE', #135, #196, #84 ) ;
#36 = CARTESIAN_POINT ( 'NONE',  ( 3.673038149111240900E-30, 5.152108988074475199E-31, 1.051999937175166157E-15 ) ) ;
#37 = EDGE_LOOP ( 'NONE', ( #93 ) ) ;
#38 = MANIFOLD_SOLID_BREP ( 'Corps-Déplacer/Copier1[1]', #212 ) ;
#39 = PLANE ( 'NONE',  #219 ) ;
#40 = DIRECTION ( 'NONE',  ( -3.491481338843133355E-15, 9.031770143711729009E-17, -1.000000000000000000 ) ) ;
#41 = MANIFOLD_SOLID_BREP ( 'Corps-Déplacer/Copier1[2]', #88 ) ;
#42 = FACE_OUTER_BOUND ( 'NONE', #79, .T. ) ;
#43 = EDGE_CURVE ( 'NONE', #185, #185, #143, .T. ) ;
#44 = CIRCLE ( 'NONE', #153, 1.599999999999994982 ) ;
#45 = APPROVAL_ROLE ( '' ) ;
#46 = CC_DESIGN_DATE_AND_TIME_ASSIGNMENT ( #230, #62, ( #186 ) ) ;
#47 = CIRCLE ( 'NONE', #194, 1.999999999999995337 ) ;
#48 = ADVANCED_FACE ( 'NONE', ( #144, #222 ), #182, .T. ) ;
#49 = CARTESIAN_POINT ( 'NONE',  ( 2.779219145719134403E-13, 1.999999999999988010, 79.60000000000000853 ) ) ;
#50 = COORDINATED_UNIVERSAL_TIME_OFFSET ( 1, 0, .AHEAD. ) ;
#51 = ORIENTED_EDGE ( 'NONE', *, *, #232, .F. ) ;
#52 = CC_DESIGN_PERSON_AND_ORGANIZATION_ASSIGNMENT ( #173, #168, ( #176 ) ) ;
#53 = APPLICATION_PROTOCOL_DEFINITION ( 'international standard', 'config_control_design', 1994, #162 ) ;
#54 = EDGE_LOOP ( 'NONE', ( #167 ) ) ;
#55 = PERSON_AND_ORGANIZATION_ROLE ( 'creator' ) ;
#56 = APPROVAL_ROLE ( '' ) ;
#57 = ADVANCED_FACE ( 'NONE', ( #145, #224 ), #111, .T. ) ;
#58 = FACE_OUTER_BOUND ( 'NONE', #242, .T. ) ;
#59 = COORDINATED_UNIVERSAL_TIME_OFFSET ( 1, 0, .AHEAD. ) ;
#60 = EDGE_LOOP ( 'NONE', ( #131 ) ) ;
#61 = APPROVAL_PERSON_ORGANIZATION ( #110, #103, #56 ) ;
#62 = DATE_TIME_ROLE ( 'classification_date' ) ;
#63 = DESIGN_CONTEXT ( 'detailed design', #162, 'design' ) ;
#64 = CARTESIAN_POINT ( 'NONE',  ( 4.656033925505750057E-14, 2.378999999999998227, 13.33541117263562370 ) ) ;
#65 = ADVANCED_FACE ( 'NONE', ( #226 ), #130, .T. ) ;
#66 = CC_DESIGN_APPROVAL ( #103, ( #6 ) ) ;
#67 = DIRECTION ( 'NONE',  ( 0.0000000000000000000, 1.000000000000000000, 0.0000000000000000000 ) ) ;
#68 = AXIS2_PLACEMENT_3D ( 'NONE', #101, #119, #231 ) ;
#69 = DIRECTION ( 'NONE',  ( -1.700064263645732933E-30, 1.000000000000000000, -4.785255490163012192E-16 ) ) ;
#70 = DIRECTION ( 'NONE',  ( 3.153425691349006731E-31, 1.000000000000000000, 9.031770143711729009E-17 ) ) ;
#71 = CALENDAR_DATE ( 2021, 26, 11 ) ;
#72 = ORIENTED_EDGE ( 'NONE', *, *, #240, .T. ) ;
#73 = DATE_AND_TIME ( #207, #243 ) ;
#74 = FACE_OUTER_BOUND ( 'NONE', #97, .T. ) ;
#75 = DIRECTION ( 'NONE',  ( -3.491481338843133355E-15, 9.031770143711729009E-17, -1.000000000000000000 ) ) ;
#76 = EDGE_CURVE ( 'NONE', #87, #87, #177, .T. ) ;
#77 = AXIS2_PLACEMENT_3D ( 'NONE', #29, #120, #200 ) ;
#78 = EDGE_LOOP ( 'NONE', ( #174 ) ) ;
#79 = EDGE_LOOP ( 'NONE', ( #208 ) ) ;
#80 = DIRECTION ( 'NONE',  ( -3.153425691349006731E-31, -1.000000000000000000, -9.031770143711729009E-17 ) ) ;
#81 = DIRECTION ( 'NONE',  ( -3.491481338843133355E-15, -4.897442296345507923E-16, -1.000000000000000000 ) ) ;
#82 = AXIS2_PLACEMENT_3D ( 'NONE', #33, #188, #16 ) ;
#83 = LOCAL_TIME ( 11, 3, 12.00000000000000000, #142 ) ;
#84 = DIRECTION ( 'NONE',  ( 0.0000000000000000000, 1.000000000000000000, 0.0000000000000000000 ) ) ;
#85 = DIRECTION ( 'NONE',  ( -1.709932838575140268E-30, 1.000000000000000000, -4.897442296345508909E-16 ) ) ;
#86 = PERSON_AND_ORGANIZATION ( #139, #221 ) ;
#87 = VERTEX_POINT ( 'NONE', #184 ) ;
#88 = CLOSED_SHELL ( 'NONE', ( #65, #90, #57, #26 ) ) ;
#89 = APPROVAL ( #149, 'UNSPECIFIED' ) ;
#90 = ADVANCED_FACE ( 'NONE', ( #102, #23 ), #179, .T. ) ;
#91 =( GEOMETRIC_REPRESENTATION_CONTEXT ( 3 ) GLOBAL_UNCERTAINTY_ASSIGNED_CONTEXT ( ( #27 ) ) GLOBAL_UNIT_ASSIGNED_CONTEXT ( ( #202, #205, #13 ) ) REPRESENTATION_CONTEXT ( 'NONE', 'WORKASPACE' ) );
#92 = PERSON_AND_ORGANIZATION ( #139, #221 ) ;
#93 = ORIENTED_EDGE ( 'NONE', *, *, #141, .T. ) ;
#94 = DIRECTION ( 'NONE',  ( -3.491481338843133355E-15, -4.897442296345507923E-16, -1.000000000000000000 ) ) ;
#95 = EDGE_LOOP ( 'NONE', ( #191 ) ) ;
#96 = APPLICATION_PROTOCOL_DEFINITION ( 'international standard', 'config_control_design', 1994, #115 ) ;
#97 = EDGE_LOOP ( 'NONE', ( #190 ) ) ;
#98 = ADVANCED_BREP_SHAPE_REPRESENTATION ( '321379', ( #38, #41, #108 ), #91 ) ;
#99 = CARTESIAN_POINT ( 'NONE',  ( 2.793185071074506684E-13, -7.225416114969383207E-15, 80.00000000000000000 ) ) ;
#100 = PERSON_AND_ORGANIZATION_ROLE ( 'design_supplier' ) ;
#101 = CARTESIAN_POINT ( 'NONE',  ( 4.656033925505750057E-14, 6.530940671602414987E-15, 13.33541117263562370 ) ) ;
#102 = FACE_OUTER_BOUND ( 'NONE', #151, .T. ) ;
#103 = APPROVAL ( #227, 'UNSPECIFIED' ) ;
#104 = DIRECTION ( 'NONE',  ( 3.153425691349006731E-31, 1.000000000000000000, 9.031770143711729009E-17 ) ) ;
#105 = LOCAL_TIME ( 11, 3, 12.00000000000000000, #59 ) ;
#106 = DIRECTION ( 'NONE',  ( -3.491481338843133355E-15, 9.031770143711729009E-17, -1.000000000000000000 ) ) ;
#107 = VERTEX_POINT ( 'NONE', #158 ) ;
#108 = AXIS2_PLACEMENT_3D ( 'NONE', #223, #18, #32 ) ;
#109 = APPROVAL ( #216, 'UNSPECIFIED' ) ;
#110 = PERSON_AND_ORGANIZATION ( #139, #221 ) ;
#111 = CONICAL_SURFACE ( 'NONE', #34, 2.148059892324148290, 0.5235987755982979275 ) ;
#112 = CONICAL_SURFACE ( 'NONE', #77, 2.378999999999999559, 0.5235987755982927094 ) ;
#113 = ADVANCED_FACE ( 'NONE', ( #156 ), #181, .T. ) ;
#114 = ORIENTED_EDGE ( 'NONE', *, *, #76, .T. ) ;
#115 = APPLICATION_CONTEXT ( 'configuration controlled 3d designs of mechanical parts and assemblies' ) ;
#116 = EDGE_LOOP ( 'NONE', ( #128 ) ) ;
#117 = APPROVAL_DATE_TIME ( #73, #103 ) ;
#118 = AXIS2_PLACEMENT_3D ( 'NONE', #5, #81, #85 ) ;
#119 = DIRECTION ( 'NONE',  ( 3.491481338843133355E-15, 4.897442296345507923E-16, 1.000000000000000000 ) ) ;
#120 = DIRECTION ( 'NONE',  ( -3.491481338843133355E-15, 9.031770143711729009E-17, -1.000000000000000000 ) ) ;
#121 = AXIS2_PLACEMENT_3D ( 'NONE', #187, #94, #14 ) ;
#122 = APPROVAL_PERSON_ORGANIZATION ( #86, #109, #45 ) ;
#123 = VERTEX_POINT ( 'NONE', #220 ) ;
#124 = MECHANICAL_CONTEXT ( 'NONE', #115, 'mechanical' ) ;
#125 = EDGE_LOOP ( 'NONE', ( #211 ) ) ;
#126 = EDGE_CURVE ( 'NONE', #140, #140, #44, .T. ) ;
#127 = PERSON_AND_ORGANIZATION ( #139, #221 ) ;
#128 = ORIENTED_EDGE ( 'NONE', *, *, #225, .T. ) ;
#129 = DATE_TIME_ROLE ( 'creation_date' ) ;
#130 = PLANE ( 'NONE',  #68 ) ;
#131 = ORIENTED_EDGE ( 'NONE', *, *, #43, .F. ) ;
#132 = CALENDAR_DATE ( 2021, 26, 11 ) ;
#133 = FACE_OUTER_BOUND ( 'NONE', #192, .T. ) ;
#134 = PRODUCT_RELATED_PRODUCT_CATEGORY ( 'detail', '', ( #176 ) ) ;
#135 = CARTESIAN_POINT ( 'NONE',  ( 4.885231259955590439E-14, -1.263712492114123682E-15, 13.99185842870425134 ) ) ;
#136 = COORDINATED_UNIVERSAL_TIME_OFFSET ( 1, 0, .AHEAD. ) ;
#137 = LOCAL_TIME ( 11, 3, 12.00000000000000000, #136 ) ;
#138 = CARTESIAN_POINT ( 'NONE',  ( 4.656033925505751320E-14, 6.530940671602416564E-15, 13.33541117263562725 ) ) ;
#139 = PERSON ( 'UNSPECIFIED', 'UNSPECIFIED', 'UNSPECIFIED', ('UNSPECIFIED'), ('UNSPECIFIED'), ('UNSPECIFIED') ) ;
#140 = VERTEX_POINT ( 'NONE', #218 ) ;
#141 = EDGE_CURVE ( 'NONE', #107, #107, #229, .T. ) ;
#142 = COORDINATED_UNIVERSAL_TIME_OFFSET ( 1, 0, .AHEAD. ) ;
#143 = CIRCLE ( 'NONE', #121, 2.148059892324148290 ) ;
#144 = FACE_BOUND ( 'NONE', #54, .T. ) ;
#145 = FACE_OUTER_BOUND ( 'NONE', #116, .T. ) ;
#146 = COORDINATED_UNIVERSAL_TIME_OFFSET ( 1, 0, .AHEAD. ) ;
#147 = DIRECTION ( 'NONE',  ( 1.709932838575140268E-30, -1.000000000000000000, 4.897442296345507923E-16 ) ) ;
#148 = DIRECTION ( 'NONE',  ( -1.709932838575140268E-30, 1.000000000000000000, -4.897442296345507923E-16 ) ) ;
#149 = APPROVAL_STATUS ( 'not_yet_approved' ) ;
#150 = CC_DESIGN_PERSON_AND_ORGANIZATION_ASSIGNMENT ( #215, #21, ( #186 ) ) ;
#151 = EDGE_LOOP ( 'NONE', ( #114 ) ) ;
#152 = SECURITY_CLASSIFICATION_LEVEL ( 'unclassified' ) ;
#153 = AXIS2_PLACEMENT_3D ( 'NONE', #12, #164, #154 ) ;
#154 = DIRECTION ( 'NONE',  ( 0.0000000000000000000, 1.000000000000000000, 0.0000000000000000000 ) ) ;
#155 = CARTESIAN_POINT ( 'NONE',  ( 4.656033925505750689E-14, -1.204423684831302374E-15, 13.33541117263562548 ) ) ;
#156 = FACE_OUTER_BOUND ( 'NONE', #165, .T. ) ;
#157 = VERTEX_POINT ( 'NONE', #235 ) ;
#158 = CARTESIAN_POINT ( 'NONE',  ( 4.885231259955590439E-14, 1.999999999999990452, 13.99185842870425134 ) ) ;
#159 = AXIS2_PLACEMENT_3D ( 'NONE', #138, #160, #197 ) ;
#160 = DIRECTION ( 'NONE',  ( -3.491481338843133355E-15, -4.897442296345507923E-16, -1.000000000000000000 ) ) ;
#161 = SHAPE_DEFINITION_REPRESENTATION ( #163, #98 ) ;
#162 = APPLICATION_CONTEXT ( 'configuration controlled 3d designs of mechanical parts and assemblies' ) ;
#163 = PRODUCT_DEFINITION_SHAPE ( 'NONE', 'NONE',  #6 ) ;
#164 = DIRECTION ( 'NONE',  ( -3.491481338843133355E-15, 9.031770143711729009E-17, -1.000000000000000000 ) ) ;
#165 = EDGE_LOOP ( 'NONE', ( #72 ) ) ;
#166 = APPROVAL_DATE_TIME ( #195, #89 ) ;
#167 = ORIENTED_EDGE ( 'NONE', *, *, #126, .T. ) ;
#168 = PERSON_AND_ORGANIZATION_ROLE ( 'design_owner' ) ;
#169 = EDGE_LOOP ( 'NONE', ( #51 ) ) ;
#170 = AXIS2_PLACEMENT_3D ( 'NONE', #64, #24, #104 ) ;
#171 = CC_DESIGN_SECURITY_CLASSIFICATION ( #186, ( #234 ) ) ;
#172 = ADVANCED_FACE ( 'NONE', ( #180 ), #39, .T. ) ;
#173 = PERSON_AND_ORGANIZATION ( #139, #221 ) ;
#174 = ORIENTED_EDGE ( 'NONE', *, *, #225, .F. ) ;
#175 = DIRECTION ( 'NONE',  ( 3.491481338843133355E-15, -9.031770143711729009E-17, 1.000000000000000000 ) ) ;
#176 = PRODUCT ( '321379', '321379', '', ( #124 ) ) ;
#177 = CIRCLE ( 'NONE', #159, 2.378999999999992010 ) ;
#178 = AXIS2_PLACEMENT_3D ( 'NONE', #155, #106, #206 ) ;
#179 = CYLINDRICAL_SURFACE ( 'NONE', #118, 2.378999999999994674 ) ;
#180 = FACE_OUTER_BOUND ( 'NONE', #95, .T. ) ;
#181 = PLANE ( 'NONE',  #170 ) ;
#182 = CONICAL_SURFACE ( 'NONE', #82, 1.999999999999995337, 0.7853981633974516097 ) ;
#183 = DIRECTION ( 'NONE',  ( -3.491481338843133355E-15, -4.897442296345507923E-16, -1.000000000000000000 ) ) ;
#184 = CARTESIAN_POINT ( 'NONE',  ( 4.656033925505750689E-14, 2.378999999999998227, 13.33541117263562548 ) ) ;
#185 = VERTEX_POINT ( 'NONE', #7 ) ;
#186 = SECURITY_CLASSIFICATION ( '', '', #152 ) ;
#187 = CARTESIAN_POINT ( 'NONE',  ( 3.673038149111240900E-30, 5.152108988074475199E-31, 1.051999937175166157E-15 ) ) ;
#188 = DIRECTION ( 'NONE',  ( -3.491481338843133355E-15, 9.031770143711729009E-17, -1.000000000000000000 ) ) ;
#189 = APPROVAL_PERSON_ORGANIZATION ( #92, #89, #210 ) ;
#190 = ORIENTED_EDGE ( 'NONE', *, *, #43, .T. ) ;
#191 = ORIENTED_EDGE ( 'NONE', *, *, #126, .F. ) ;
#192 = EDGE_LOOP ( 'NONE', ( #17 ) ) ;
#193 = AXIS2_PLACEMENT_3D ( 'NONE', #213, #40, #70 ) ;
#194 = AXIS2_PLACEMENT_3D ( 'NONE', #238, #75, #67 ) ;
#195 = DATE_AND_TIME ( #132, #105 ) ;
#196 = DIRECTION ( 'NONE',  ( -3.491481338843133355E-15, 9.031770143711729009E-17, -1.000000000000000000 ) ) ;
#197 = DIRECTION ( 'NONE',  ( -2.590574116031599514E-30, 1.000000000000000000, -7.291817889772227274E-16 ) ) ;
#198 = ADVANCED_FACE ( 'NONE', ( #214, #42 ), #112, .T. ) ;
#199 = AXIS2_PLACEMENT_3D ( 'NONE', #28, #183, #69 ) ;
#200 = DIRECTION ( 'NONE',  ( 0.0000000000000000000, 1.000000000000000000, 0.0000000000000000000 ) ) ;
#201 = CC_DESIGN_PERSON_AND_ORGANIZATION_ASSIGNMENT ( #22, #100, ( #234 ) ) ;
#202 =( LENGTH_UNIT ( ) NAMED_UNIT ( * ) SI_UNIT ( .MILLI., .METRE. ) );
#203 = APPROVAL_DATE_TIME ( #233, #109 ) ;
#204 = CALENDAR_DATE ( 2021, 26, 11 ) ;
#205 =( NAMED_UNIT ( * ) PLANE_ANGLE_UNIT ( ) SI_UNIT ( $, .RADIAN. ) );
#206 = DIRECTION ( 'NONE',  ( 0.0000000000000000000, 1.000000000000000000, 0.0000000000000000000 ) ) ;
#207 = CALENDAR_DATE ( 2021, 26, 11 ) ;
#208 = ORIENTED_EDGE ( 'NONE', *, *, #240, .F. ) ;
#209 = PERSON_AND_ORGANIZATION_ROLE ( 'creator' ) ;
#210 = APPROVAL_ROLE ( '' ) ;
#211 = ORIENTED_EDGE ( 'NONE', *, *, #76, .F. ) ;
#212 = CLOSED_SHELL ( 'NONE', ( #172, #48, #30, #198, #113 ) ) ;
#213 = CARTESIAN_POINT ( 'NONE',  ( 0.0000000000000000000, 0.0000000000000000000, 0.0000000000000000000 ) ) ;
#214 = FACE_BOUND ( 'NONE', #37, .T. ) ;
#215 = PERSON_AND_ORGANIZATION ( #139, #221 ) ;
#216 = APPROVAL_STATUS ( 'not_yet_approved' ) ;
#217 = CC_DESIGN_DATE_AND_TIME_ASSIGNMENT ( #15, #129, ( #6 ) ) ;
#218 = CARTESIAN_POINT ( 'NONE',  ( 2.793185071074506684E-13, 1.599999999999987876, 80.00000000000000000 ) ) ;
#219 = AXIS2_PLACEMENT_3D ( 'NONE', #99, #175, #80 ) ;
#220 = CARTESIAN_POINT ( 'NONE',  ( 1.396592535537252948E-15, 2.378999999999997783, 0.3999999999999999112 ) ) ;
#221 = ORGANIZATION ( 'UNSPECIFIED', 'UNSPECIFIED', '' ) ;
#222 = FACE_OUTER_BOUND ( 'NONE', #169, .T. ) ;
#223 = CARTESIAN_POINT ( 'NONE',  ( 0.0000000000000000000, 0.0000000000000000000, 0.0000000000000000000 ) ) ;
#224 = FACE_BOUND ( 'NONE', #60, .T. ) ;
#225 = EDGE_CURVE ( 'NONE', #123, #123, #4, .T. ) ;
#226 = FACE_OUTER_BOUND ( 'NONE', #125, .T. ) ;
#227 = APPROVAL_STATUS ( 'not_yet_approved' ) ;
#228 = CARTESIAN_POINT ( 'NONE',  ( -1.836519074555620450E-30, 2.148059892324148290, -5.259999685875830785E-16 ) ) ;
#229 = CIRCLE ( 'NONE', #35, 1.999999999999991784 ) ;
#230 = DATE_AND_TIME ( #20, #137 ) ;
#231 = DIRECTION ( 'NONE',  ( 1.709932838575140268E-30, -1.000000000000000000, 4.897442296345507923E-16 ) ) ;
#232 = EDGE_CURVE ( 'NONE', #10, #10, #47, .T. ) ;
#233 = DATE_AND_TIME ( #204, #83 ) ;
#234 = PRODUCT_DEFINITION_FORMATION_WITH_SPECIFIED_SOURCE ( 'ANY', '', #176, .NOT_KNOWN. ) ;
#235 = CARTESIAN_POINT ( 'NONE',  ( 4.656033925505750689E-14, 2.378999999999998227, 13.33541117263562548 ) ) ;
#236 = CIRCLE ( 'NONE', #178, 2.378999999999999559 ) ;
#237 = DIRECTION ( 'NONE',  ( -3.491481338843133355E-15, -4.897442296345507923E-16, -1.000000000000000000 ) ) ;
#238 = CARTESIAN_POINT ( 'NONE',  ( 2.779219145719134403E-13, -7.189289034394536528E-15, 79.60000000000000853 ) ) ;
#239 = CYLINDRICAL_SURFACE ( 'NONE', #193, 1.999999999999993561 ) ;
#240 = EDGE_CURVE ( 'NONE', #157, #157, #236, .T. ) ;
#241 = DIRECTION ( 'NONE',  ( 3.491481338843133355E-15, 4.897442296345507923E-16, 1.000000000000000000 ) ) ;
#242 = EDGE_LOOP ( 'NONE', ( #19 ) ) ;
#243 = LOCAL_TIME ( 11, 3, 12.00000000000000000, #50 ) ;
ENDSEC;
END-ISO-10303-21;
