ISO-10303-21;
HEADER;
FILE_DESCRIPTION (( 'STEP AP203' ),
    '1' );
FILE_NAME ('321378.step',
    '2021-11-26T10:03:11',
    ( '' ),
    ( '' ),
    'SwSTEP 2.0',
    'SolidWorks 2019',
    '' );
FILE_SCHEMA (( 'CONFIG_CONTROL_DESIGN' ));
ENDSEC;

DATA;
#1 = PERSON_AND_ORGANIZATION_ROLE ( 'design_owner' ) ;
#2 = CC_DESIGN_DATE_AND_TIME_ASSIGNMENT ( #206, #35, ( #55 ) ) ;
#3 = EDGE_LOOP ( 'NONE', ( #128 ) ) ;
#4 = FACE_OUTER_BOUND ( 'NONE', #88, .T. ) ;
#5 = EDGE_CURVE ( 'NONE', #199, #199, #208, .T. ) ;
#6 = FACE_BOUND ( 'NONE', #108, .T. ) ;
#7 = CARTESIAN_POINT ( 'NONE',  ( 3.660920847294966762E-30, 5.130112858678315093E-31, 1.048529404000187443E-15 ) ) ;
#8 = CONICAL_SURFACE ( 'NONE', #81, 2.373999999999999666, 0.5235987755982933756 ) ;
#9 = ADVANCED_FACE ( 'NONE', ( #153 ), #210, .T. ) ;
#10 = AXIS2_PLACEMENT_3D ( 'NONE', #191, #214, #212 ) ;
#11 = ADVANCED_FACE ( 'NONE', ( #96, #6 ), #33, .T. ) ;
#12 = FACE_OUTER_BOUND ( 'NONE', #38, .T. ) ;
#13 = PERSON_AND_ORGANIZATION_ROLE ( 'design_supplier' ) ;
#14 = COORDINATED_UNIVERSAL_TIME_OFFSET ( 1, 0, .AHEAD. ) ;
#15 = APPROVAL_STATUS ( 'not_yet_approved' ) ;
#16 = LOCAL_TIME ( 11, 3, 11.00000000000000000, #90 ) ;
#17 = DIRECTION ( 'NONE',  ( -1.708268098529293510E-30, 1.000000000000000000, -4.892674291351964709E-16 ) ) ;
#18 = AXIS2_PLACEMENT_3D ( 'NONE', #111, #20, #45 ) ;
#19 = APPROVAL ( #15, 'UNSPECIFIED' ) ;
#20 = DIRECTION ( 'NONE',  ( -3.491481338843133355E-15, 9.031770143711729009E-17, -1.000000000000000000 ) ) ;
#21 = APPLICATION_CONTEXT ( 'configuration controlled 3d designs of mechanical parts and assemblies' ) ;
#22 = FACE_OUTER_BOUND ( 'NONE', #209, .T. ) ;
#23 = FACE_OUTER_BOUND ( 'NONE', #147, .T. ) ;
#24 = CYLINDRICAL_SURFACE ( 'NONE', #215, 1.999999999999993561 ) ;
#25 = DIRECTION ( 'NONE',  ( -1.703644853922998028E-30, 1.000000000000000000, -4.795333955812048132E-16 ) ) ;
#26 = PERSON ( 'UNSPECIFIED', 'UNSPECIFIED', 'UNSPECIFIED', ('UNSPECIFIED'), ('UNSPECIFIED'), ('UNSPECIFIED') ) ;
#27 = CARTESIAN_POINT ( 'NONE',  ( 2.793185071074506684E-13, 1.599999999999987876, 80.00000000000000000 ) ) ;
#28 = EDGE_CURVE ( 'NONE', #198, #198, #179, .T. ) ;
#29 = VERTEX_POINT ( 'NONE', #217 ) ;
#30 = EDGE_LOOP ( 'NONE', ( #59 ) ) ;
#31 = VERTEX_POINT ( 'NONE', #237 ) ;
#32 = APPLICATION_PROTOCOL_DEFINITION ( 'international standard', 'config_control_design', 1994, #67 ) ;
#33 = CONICAL_SURFACE ( 'NONE', #86, 2.143059892324149285, 0.5235987755982979275 ) ;
#34 = APPROVAL_STATUS ( 'not_yet_approved' ) ;
#35 = DATE_TIME_ROLE ( 'creation_date' ) ;
#36 = CC_DESIGN_APPROVAL ( #102, ( #120 ) ) ;
#37 = PERSON_AND_ORGANIZATION ( #26, #93 ) ;
#38 = EDGE_LOOP ( 'NONE', ( #167 ) ) ;
#39 = CARTESIAN_POINT ( 'NONE',  ( -1.830460423647483381E-30, 2.143059892324149285, -5.242647020000937213E-16 ) ) ;
#40 = MANIFOLD_SOLID_BREP ( 'Corps-Déplacer/Copier1[1]', #225 ) ;
#41 = CARTESIAN_POINT ( 'NONE',  ( 4.659057637042028824E-14, -1.205205859069862262E-15, 13.34407142667346946 ) ) ;
#42 = AXIS2_PLACEMENT_3D ( 'NONE', #131, #172, #174 ) ;
#43 = DIRECTION ( 'NONE',  ( 0.0000000000000000000, 1.000000000000000000, 0.0000000000000000000 ) ) ;
#44 = CARTESIAN_POINT ( 'NONE',  ( 2.779219145719134403E-13, -7.189289034394536528E-15, 79.60000000000000853 ) ) ;
#45 = DIRECTION ( 'NONE',  ( 0.0000000000000000000, 1.000000000000000000, 0.0000000000000000000 ) ) ;
#46 = DIRECTION ( 'NONE',  ( -3.491481338843133355E-15, 9.031770143711729009E-17, -1.000000000000000000 ) ) ;
#47 = CARTESIAN_POINT ( 'NONE',  ( 2.779219145719134403E-13, 1.999999999999988010, 79.60000000000000853 ) ) ;
#48 = EDGE_CURVE ( 'NONE', #157, #157, #235, .T. ) ;
#49 = EDGE_LOOP ( 'NONE', ( #200 ) ) ;
#50 = CIRCLE ( 'NONE', #238, 2.373999999999992117 ) ;
#51 = ORIENTED_EDGE ( 'NONE', *, *, #72, .T. ) ;
#52 = CALENDAR_DATE ( 2021, 26, 11 ) ;
#53 = ADVANCED_FACE ( 'NONE', ( #114, #22 ), #8, .T. ) ;
#54 = APPROVAL_DATE_TIME ( #220, #102 ) ;
#55 = PRODUCT_DEFINITION ( 'UNKNOWN', '', #218, #110 ) ;
#56 = CALENDAR_DATE ( 2021, 26, 11 ) ;
#57 = ORIENTED_EDGE ( 'NONE', *, *, #193, .T. ) ;
#58 = PERSON_AND_ORGANIZATION ( #26, #93 ) ;
#59 = ORIENTED_EDGE ( 'NONE', *, *, #72, .F. ) ;
#60 = CIRCLE ( 'NONE', #18, 1.999999999999991784 ) ;
#61 = DIRECTION ( 'NONE',  ( 3.153425691349006731E-31, 1.000000000000000000, 9.031770143711729009E-17 ) ) ;
#62 = CARTESIAN_POINT ( 'NONE',  ( 4.659057637042028824E-14, -1.205205859069862262E-15, 13.34407142667346946 ) ) ;
#63 = DIRECTION ( 'NONE',  ( -3.491481338843133355E-15, 9.031770143711729009E-17, -1.000000000000000000 ) ) ;
#64 = CC_DESIGN_APPROVAL ( #68, ( #55 ) ) ;
#65 = FACE_OUTER_BOUND ( 'NONE', #182, .T. ) ;
#66 = PRODUCT_RELATED_PRODUCT_CATEGORY ( 'detail', '', ( #171 ) ) ;
#67 = APPLICATION_CONTEXT ( 'configuration controlled 3d designs of mechanical parts and assemblies' ) ;
#68 = APPROVAL ( #184, 'UNSPECIFIED' ) ;
#69 =( NAMED_UNIT ( * ) SI_UNIT ( $, .STERADIAN. ) SOLID_ANGLE_UNIT ( ) );
#70 = VERTEX_POINT ( 'NONE', #236 ) ;
#71 = DATE_TIME_ROLE ( 'classification_date' ) ;
#72 = EDGE_CURVE ( 'NONE', #31, #31, #60, .T. ) ;
#73 = APPROVAL_DATE_TIME ( #74, #68 ) ;
#74 = DATE_AND_TIME ( #56, #124 ) ;
#75 =( GEOMETRIC_REPRESENTATION_CONTEXT ( 3 ) GLOBAL_UNCERTAINTY_ASSIGNED_CONTEXT ( ( #187 ) ) GLOBAL_UNIT_ASSIGNED_CONTEXT ( ( #178, #121, #69 ) ) REPRESENTATION_CONTEXT ( 'NONE', 'WORKASPACE' ) );
#76 = ADVANCED_FACE ( 'NONE', ( #23, #4 ), #233, .T. ) ;
#77 = MECHANICAL_CONTEXT ( 'NONE', #21, 'mechanical' ) ;
#78 = EDGE_LOOP ( 'NONE', ( #211 ) ) ;
#79 = APPROVAL_ROLE ( '' ) ;
#80 = DIRECTION ( 'NONE',  ( -3.491481338843133355E-15, 9.031770143711729009E-17, -1.000000000000000000 ) ) ;
#81 = AXIS2_PLACEMENT_3D ( 'NONE', #62, #63, #43 ) ;
#82 = EDGE_LOOP ( 'NONE', ( #203 ) ) ;
#83 = AXIS2_PLACEMENT_3D ( 'NONE', #39, #226, #231 ) ;
#84 = DIRECTION ( 'NONE',  ( -3.491481338843133355E-15, 9.031770143711729009E-17, -1.000000000000000000 ) ) ;
#85 = CARTESIAN_POINT ( 'NONE',  ( 4.659057637042029455E-14, 6.528819521124963321E-15, 13.34407142667347124 ) ) ;
#86 = AXIS2_PLACEMENT_3D ( 'NONE', #7, #229, #113 ) ;
#87 = DIRECTION ( 'NONE',  ( -3.491481338843133355E-15, -4.892674291351964709E-16, -1.000000000000000000 ) ) ;
#88 = EDGE_LOOP ( 'NONE', ( #190 ) ) ;
#89 = SECURITY_CLASSIFICATION_LEVEL ( 'unclassified' ) ;
#90 = COORDINATED_UNIVERSAL_TIME_OFFSET ( 1, 0, .AHEAD. ) ;
#91 = PERSON_AND_ORGANIZATION_ROLE ( 'creator' ) ;
#92 = CC_DESIGN_APPROVAL ( #19, ( #218 ) ) ;
#93 = ORGANIZATION ( 'UNSPECIFIED', 'UNSPECIFIED', '' ) ;
#94 = CARTESIAN_POINT ( 'NONE',  ( 4.659057637042029455E-14, 6.528819521124963321E-15, 13.34407142667347124 ) ) ;
#95 = CC_DESIGN_PERSON_AND_ORGANIZATION_ASSIGNMENT ( #205, #1, ( #171 ) ) ;
#96 = FACE_OUTER_BOUND ( 'NONE', #143, .T. ) ;
#97 = CARTESIAN_POINT ( 'NONE',  ( 0.0000000000000000000, 0.0000000000000000000, 0.0000000000000000000 ) ) ;
#98 = CARTESIAN_POINT ( 'NONE',  ( 2.779219145719134403E-13, -7.189289034394536528E-15, 79.60000000000000853 ) ) ;
#99 = VERTEX_POINT ( 'NONE', #142 ) ;
#100 = APPLICATION_PROTOCOL_DEFINITION ( 'international standard', 'config_control_design', 1994, #21 ) ;
#101 = PLANE ( 'NONE',  #112 ) ;
#102 = APPROVAL ( #34, 'UNSPECIFIED' ) ;
#103 = ORIENTED_EDGE ( 'NONE', *, *, #48, .F. ) ;
#104 = CARTESIAN_POINT ( 'NONE',  ( 1.396592535537256892E-15, 1.957069716540791159E-16, 0.4000000000000010214 ) ) ;
#105 = EDGE_CURVE ( 'NONE', #70, #70, #50, .T. ) ;
#106 = DIRECTION ( 'NONE',  ( 0.0000000000000000000, 0.0000000000000000000, 1.000000000000000000 ) ) ;
#107 = LOCAL_TIME ( 11, 3, 11.00000000000000000, #145 ) ;
#108 = EDGE_LOOP ( 'NONE', ( #119 ) ) ;
#109 = DIRECTION ( 'NONE',  ( -3.491481338843133355E-15, -4.892674291351964709E-16, -1.000000000000000000 ) ) ;
#110 = DESIGN_CONTEXT ( 'detailed design', #67, 'design' ) ;
#111 = CARTESIAN_POINT ( 'NONE',  ( 4.885231259955590439E-14, -1.263712492114123682E-15, 13.99185842870425134 ) ) ;
#112 = AXIS2_PLACEMENT_3D ( 'NONE', #234, #46, #177 ) ;
#113 = DIRECTION ( 'NONE',  ( 1.708268098529293510E-30, -1.000000000000000000, 4.892674291351964709E-16 ) ) ;
#114 = FACE_BOUND ( 'NONE', #159, .T. ) ;
#115 = FACE_OUTER_BOUND ( 'NONE', #82, .T. ) ;
#116 = AXIS2_PLACEMENT_3D ( 'NONE', #41, #156, #176 ) ;
#117 = CC_DESIGN_PERSON_AND_ORGANIZATION_ASSIGNMENT ( #161, #239, ( #120 ) ) ;
#118 = PLANE ( 'NONE',  #146 ) ;
#119 = ORIENTED_EDGE ( 'NONE', *, *, #152, .F. ) ;
#120 = SECURITY_CLASSIFICATION ( '', '', #89 ) ;
#121 =( NAMED_UNIT ( * ) PLANE_ANGLE_UNIT ( ) SI_UNIT ( $, .RADIAN. ) );
#122 = COORDINATED_UNIVERSAL_TIME_OFFSET ( 1, 0, .AHEAD. ) ;
#123 = SHAPE_DEFINITION_REPRESENTATION ( #228, #227 ) ;
#124 = LOCAL_TIME ( 11, 3, 11.00000000000000000, #14 ) ;
#125 = DIRECTION ( 'NONE',  ( 1.000000000000000000, 0.0000000000000000000, 0.0000000000000000000 ) ) ;
#126 = CALENDAR_DATE ( 2021, 26, 11 ) ;
#127 = CC_DESIGN_PERSON_AND_ORGANIZATION_ASSIGNMENT ( #160, #224, ( #55 ) ) ;
#128 = ORIENTED_EDGE ( 'NONE', *, *, #105, .F. ) ;
#129 = LOCAL_TIME ( 11, 3, 11.00000000000000000, #122 ) ;
#130 = CARTESIAN_POINT ( 'NONE',  ( 3.660920847294966762E-30, 5.130112858678315093E-31, 1.048529404000187443E-15 ) ) ;
#131 = CARTESIAN_POINT ( 'NONE',  ( 2.793185071074506684E-13, -7.225416114969383207E-15, 80.00000000000000000 ) ) ;
#132 = CARTESIAN_POINT ( 'NONE',  ( 2.793185071074506684E-13, -7.225416114969383207E-15, 80.00000000000000000 ) ) ;
#133 = AXIS2_PLACEMENT_3D ( 'NONE', #44, #150, #192 ) ;
#134 = CONICAL_SURFACE ( 'NONE', #232, 1.999999999999995337, 0.7853981633974516097 ) ;
#135 = FACE_OUTER_BOUND ( 'NONE', #30, .T. ) ;
#136 = CIRCLE ( 'NONE', #195, 2.143059892324149285 ) ;
#137 = FACE_BOUND ( 'NONE', #78, .T. ) ;
#138 = ORIENTED_EDGE ( 'NONE', *, *, #5, .F. ) ;
#139 = ADVANCED_FACE ( 'NONE', ( #115 ), #194, .T. ) ;
#140 = DIRECTION ( 'NONE',  ( 3.491481338843133355E-15, 4.892674291351964709E-16, 1.000000000000000000 ) ) ;
#141 = APPROVAL_PERSON_ORGANIZATION ( #185, #19, #79 ) ;
#142 = CARTESIAN_POINT ( 'NONE',  ( 1.396592535537252948E-15, 2.373999999999998778, 0.3999999999999999112 ) ) ;
#143 = EDGE_LOOP ( 'NONE', ( #57 ) ) ;
#144 = PERSON_AND_ORGANIZATION ( #26, #93 ) ;
#145 = COORDINATED_UNIVERSAL_TIME_OFFSET ( 1, 0, .AHEAD. ) ;
#146 = AXIS2_PLACEMENT_3D ( 'NONE', #85, #140, #180 ) ;
#147 = EDGE_LOOP ( 'NONE', ( #168 ) ) ;
#148 = ADVANCED_FACE ( 'NONE', ( #65, #135 ), #24, .T. ) ;
#149 = APPROVAL_DATE_TIME ( #166, #19 ) ;
#150 = DIRECTION ( 'NONE',  ( -3.491481338843133355E-15, 9.031770143711729009E-17, -1.000000000000000000 ) ) ;
#151 = DIRECTION ( 'NONE',  ( 0.0000000000000000000, 1.000000000000000000, 0.0000000000000000000 ) ) ;
#152 = EDGE_CURVE ( 'NONE', #29, #29, #136, .T. ) ;
#153 = FACE_OUTER_BOUND ( 'NONE', #49, .T. ) ;
#154 = DIRECTION ( 'NONE',  ( -2.596030253596956800E-30, 1.000000000000000000, -7.307175551713618048E-16 ) ) ;
#155 = CLOSED_SHELL ( 'NONE', ( #197, #76, #11, #139 ) ) ;
#156 = DIRECTION ( 'NONE',  ( -3.491481338843133355E-15, 9.031770143711729009E-17, -1.000000000000000000 ) ) ;
#157 = VERTEX_POINT ( 'NONE', #158 ) ;
#158 = CARTESIAN_POINT ( 'NONE',  ( 4.659057637042028824E-14, 2.373999999999998334, 13.34407142667346946 ) ) ;
#159 = EDGE_LOOP ( 'NONE', ( #51 ) ) ;
#160 = PERSON_AND_ORGANIZATION ( #26, #93 ) ;
#161 = PERSON_AND_ORGANIZATION ( #26, #93 ) ;
#162 = ADVANCED_FACE ( 'NONE', ( #12 ), #101, .T. ) ;
#163 = CALENDAR_DATE ( 2021, 26, 11 ) ;
#164 = APPROVAL_PERSON_ORGANIZATION ( #58, #68, #186 ) ;
#165 = CC_DESIGN_PERSON_AND_ORGANIZATION_ASSIGNMENT ( #183, #13, ( #218 ) ) ;
#166 = DATE_AND_TIME ( #207, #129 ) ;
#167 = ORIENTED_EDGE ( 'NONE', *, *, #48, .T. ) ;
#168 = ORIENTED_EDGE ( 'NONE', *, *, #105, .T. ) ;
#169 = ORIENTED_EDGE ( 'NONE', *, *, #5, .T. ) ;
#170 = CIRCLE ( 'NONE', #222, 2.373999999999998778 ) ;
#171 = PRODUCT ( '321378', '321378', '', ( #77 ) ) ;
#172 = DIRECTION ( 'NONE',  ( 3.491481338843133355E-15, -9.031770143711729009E-17, 1.000000000000000000 ) ) ;
#173 = DIRECTION ( 'NONE',  ( -3.491481338843133355E-15, -4.892674291351964709E-16, -1.000000000000000000 ) ) ;
#174 = DIRECTION ( 'NONE',  ( -3.153425691349006731E-31, -1.000000000000000000, -9.031770143711729009E-17 ) ) ;
#175 = CC_DESIGN_SECURITY_CLASSIFICATION ( #120, ( #218 ) ) ;
#176 = DIRECTION ( 'NONE',  ( 0.0000000000000000000, 1.000000000000000000, 0.0000000000000000000 ) ) ;
#177 = DIRECTION ( 'NONE',  ( 3.153425691349006731E-31, 1.000000000000000000, 9.031770143711729009E-17 ) ) ;
#178 =( LENGTH_UNIT ( ) NAMED_UNIT ( * ) SI_UNIT ( .MILLI., .METRE. ) );
#179 = CIRCLE ( 'NONE', #243, 1.599999999999994982 ) ;
#180 = DIRECTION ( 'NONE',  ( 1.708268098529293510E-30, -1.000000000000000000, 4.892674291351964709E-16 ) ) ;
#181 = DIRECTION ( 'NONE',  ( -3.491481338843133355E-15, 9.031770143711729009E-17, -1.000000000000000000 ) ) ;
#182 = EDGE_LOOP ( 'NONE', ( #169 ) ) ;
#183 = PERSON_AND_ORGANIZATION ( #26, #93 ) ;
#184 = APPROVAL_STATUS ( 'not_yet_approved' ) ;
#185 = PERSON_AND_ORGANIZATION ( #26, #93 ) ;
#186 = APPROVAL_ROLE ( '' ) ;
#187 = UNCERTAINTY_MEASURE_WITH_UNIT (LENGTH_MEASURE( 1.000000000000000082E-05 ), #178, 'distance_accuracy_value', 'NONE');
#188 = CARTESIAN_POINT ( 'NONE',  ( 0.0000000000000000000, 0.0000000000000000000, 0.0000000000000000000 ) ) ;
#189 = APPROVAL_PERSON_ORGANIZATION ( #144, #102, #219 ) ;
#190 = ORIENTED_EDGE ( 'NONE', *, *, #193, .F. ) ;
#191 = CARTESIAN_POINT ( 'NONE',  ( 0.0000000000000000000, 0.0000000000000000000, 0.0000000000000000000 ) ) ;
#192 = DIRECTION ( 'NONE',  ( 0.0000000000000000000, 1.000000000000000000, 0.0000000000000000000 ) ) ;
#193 = EDGE_CURVE ( 'NONE', #99, #99, #170, .T. ) ;
#194 = PLANE ( 'NONE',  #83 ) ;
#195 = AXIS2_PLACEMENT_3D ( 'NONE', #130, #109, #17 ) ;
#196 = FACE_OUTER_BOUND ( 'NONE', #3, .T. ) ;
#197 = ADVANCED_FACE ( 'NONE', ( #196 ), #118, .T. ) ;
#198 = VERTEX_POINT ( 'NONE', #27 ) ;
#199 = VERTEX_POINT ( 'NONE', #47 ) ;
#200 = ORIENTED_EDGE ( 'NONE', *, *, #28, .F. ) ;
#201 = LOCAL_TIME ( 11, 3, 11.00000000000000000, #241 ) ;
#202 = FACE_OUTER_BOUND ( 'NONE', #223, .T. ) ;
#203 = ORIENTED_EDGE ( 'NONE', *, *, #152, .T. ) ;
#204 = MANIFOLD_SOLID_BREP ( 'Corps-Déplacer/Copier1[2]', #155 ) ;
#205 = PERSON_AND_ORGANIZATION ( #26, #93 ) ;
#206 = DATE_AND_TIME ( #126, #201 ) ;
#207 = CALENDAR_DATE ( 2021, 26, 11 ) ;
#208 = CIRCLE ( 'NONE', #133, 1.999999999999995337 ) ;
#209 = EDGE_LOOP ( 'NONE', ( #103 ) ) ;
#210 = PLANE ( 'NONE',  #42 ) ;
#211 = ORIENTED_EDGE ( 'NONE', *, *, #28, .T. ) ;
#212 = DIRECTION ( 'NONE',  ( -1.708268098529293160E-30, 1.000000000000000000, -4.892674291351964709E-16 ) ) ;
#213 = CC_DESIGN_PERSON_AND_ORGANIZATION_ASSIGNMENT ( #37, #91, ( #218 ) ) ;
#214 = DIRECTION ( 'NONE',  ( -3.491481338843133355E-15, -4.892674291351964709E-16, -1.000000000000000000 ) ) ;
#215 = AXIS2_PLACEMENT_3D ( 'NONE', #97, #80, #61 ) ;
#216 = DIRECTION ( 'NONE',  ( 0.0000000000000000000, 1.000000000000000000, 0.0000000000000000000 ) ) ;
#217 = CARTESIAN_POINT ( 'NONE',  ( 0.0000000000000000000, 2.143059892324149285, 0.0000000000000000000 ) ) ;
#218 = PRODUCT_DEFINITION_FORMATION_WITH_SPECIFIED_SOURCE ( 'ANY', '', #171, .NOT_KNOWN. ) ;
#219 = APPROVAL_ROLE ( '' ) ;
#220 = DATE_AND_TIME ( #52, #107 ) ;
#221 = CC_DESIGN_DATE_AND_TIME_ASSIGNMENT ( #240, #71, ( #120 ) ) ;
#222 = AXIS2_PLACEMENT_3D ( 'NONE', #104, #87, #25 ) ;
#223 = EDGE_LOOP ( 'NONE', ( #138 ) ) ;
#224 = PERSON_AND_ORGANIZATION_ROLE ( 'creator' ) ;
#225 = CLOSED_SHELL ( 'NONE', ( #9, #230, #148, #53, #162 ) ) ;
#226 = DIRECTION ( 'NONE',  ( -3.491481338843133355E-15, -4.892674291351964709E-16, -1.000000000000000000 ) ) ;
#227 = ADVANCED_BREP_SHAPE_REPRESENTATION ( '321378', ( #40, #204, #242 ), #75 ) ;
#228 = PRODUCT_DEFINITION_SHAPE ( 'NONE', 'NONE',  #55 ) ;
#229 = DIRECTION ( 'NONE',  ( 3.491481338843133355E-15, 4.892674291351964709E-16, 1.000000000000000000 ) ) ;
#230 = ADVANCED_FACE ( 'NONE', ( #137, #202 ), #134, .T. ) ;
#231 = DIRECTION ( 'NONE',  ( -1.708268098529293510E-30, 1.000000000000000000, -4.892674291351964709E-16 ) ) ;
#232 = AXIS2_PLACEMENT_3D ( 'NONE', #98, #181, #216 ) ;
#233 = CYLINDRICAL_SURFACE ( 'NONE', #10, 2.373999999999995669 ) ;
#234 = CARTESIAN_POINT ( 'NONE',  ( 4.659057637042029455E-14, 2.373999999999998334, 13.34407142667347124 ) ) ;
#235 = CIRCLE ( 'NONE', #116, 2.373999999999999666 ) ;
#236 = CARTESIAN_POINT ( 'NONE',  ( 4.659057637042028824E-14, 2.373999999999998334, 13.34407142667346946 ) ) ;
#237 = CARTESIAN_POINT ( 'NONE',  ( 4.885231259955590439E-14, 1.999999999999990452, 13.99185842870425134 ) ) ;
#238 = AXIS2_PLACEMENT_3D ( 'NONE', #94, #173, #154 ) ;
#239 = PERSON_AND_ORGANIZATION_ROLE ( 'classification_officer' ) ;
#240 = DATE_AND_TIME ( #163, #16 ) ;
#241 = COORDINATED_UNIVERSAL_TIME_OFFSET ( 1, 0, .AHEAD. ) ;
#242 = AXIS2_PLACEMENT_3D ( 'NONE', #188, #106, #125 ) ;
#243 = AXIS2_PLACEMENT_3D ( 'NONE', #132, #84, #151 ) ;
ENDSEC;
END-ISO-10303-21;
