ISO-10303-21;
HEADER;
FILE_DESCRIPTION (( 'STEP AP203' ),
    '1' );
FILE_NAME ('321377.step',
    '2021-11-26T10:03:11',
    ( '' ),
    ( '' ),
    'SwSTEP 2.0',
    'SolidWorks 2019',
    '' );
FILE_SCHEMA (( 'CONFIG_CONTROL_DESIGN' ));
ENDSEC;

DATA;
#1 = ADVANCED_FACE ( 'NONE', ( #135, #31 ), #7, .T. ) ;
#2 = AXIS2_PLACEMENT_3D ( 'NONE', #175, #204, #73 ) ;
#3 = EDGE_CURVE ( 'NONE', #15, #15, #94, .T. ) ;
#4 = FACE_OUTER_BOUND ( 'NONE', #21, .T. ) ;
#5 = APPLICATION_PROTOCOL_DEFINITION ( 'international standard', 'config_control_design', 1994, #110 ) ;
#6 = CALENDAR_DATE ( 2021, 26, 11 ) ;
#7 = CYLINDRICAL_SURFACE ( 'NONE', #237, 2.368999999999994888 ) ;
#8 = ORIENTED_EDGE ( 'NONE', *, *, #224, .F. ) ;
#9 = CC_DESIGN_PERSON_AND_ORGANIZATION_ASSIGNMENT ( #77, #35, ( #158 ) ) ;
#10 = DATE_TIME_ROLE ( 'creation_date' ) ;
#11 = AXIS2_PLACEMENT_3D ( 'NONE', #25, #91, #130 ) ;
#12 = EDGE_LOOP ( 'NONE', ( #179 ) ) ;
#13 = APPROVAL_ROLE ( '' ) ;
#14 = PRODUCT ( '321377', '321377', '', ( #90 ) ) ;
#15 = VERTEX_POINT ( 'NONE', #142 ) ;
#16 = CALENDAR_DATE ( 2021, 26, 11 ) ;
#17 = PLANE ( 'NONE',  #56 ) ;
#18 = APPROVAL_PERSON_ORGANIZATION ( #85, #34, #154 ) ;
#19 = CARTESIAN_POINT ( 'NONE',  ( 4.885231259955590439E-14, -1.263712492114123682E-15, 13.99185842870425134 ) ) ;
#20 = PERSON_AND_ORGANIZATION_ROLE ( 'design_owner' ) ;
#21 = EDGE_LOOP ( 'NONE', ( #108 ) ) ;
#22 = CLOSED_SHELL ( 'NONE', ( #161, #93, #121, #243, #82 ) ) ;
#23 = AXIS2_PLACEMENT_3D ( 'NONE', #83, #44, #81 ) ;
#24 = DIRECTION ( 'NONE',  ( 0.0000000000000000000, 1.000000000000000000, 0.0000000000000000000 ) ) ;
#25 = CARTESIAN_POINT ( 'NONE',  ( 3.648824809846451005E-30, 5.108186056956155217E-31, 1.045064961182193421E-15 ) ) ;
#26 = DIRECTION ( 'NONE',  ( -3.491481338843133355E-15, -4.887912471180449615E-16, -1.000000000000000000 ) ) ;
#27 = PRODUCT_DEFINITION ( 'UNKNOWN', '', #37, #171 ) ;
#28 = CARTESIAN_POINT ( 'NONE',  ( 0.0000000000000000000, 0.0000000000000000000, 0.0000000000000000000 ) ) ;
#29 = DATE_TIME_ROLE ( 'classification_date' ) ;
#30 =( LENGTH_UNIT ( ) NAMED_UNIT ( * ) SI_UNIT ( .MILLI., .METRE. ) );
#31 = FACE_OUTER_BOUND ( 'NONE', #219, .T. ) ;
#32 = ADVANCED_BREP_SHAPE_REPRESENTATION ( '321377', ( #114, #118, #75 ), #211 ) ;
#33 = DIRECTION ( 'NONE',  ( 3.491481338843133355E-15, -9.031770143711729009E-17, 1.000000000000000000 ) ) ;
#34 = APPROVAL ( #210, 'UNSPECIFIED' ) ;
#35 = PERSON_AND_ORGANIZATION_ROLE ( 'classification_officer' ) ;
#36 = DIRECTION ( 'NONE',  ( -3.491481338843133355E-15, 9.031770143711729009E-17, -1.000000000000000000 ) ) ;
#37 = PRODUCT_DEFINITION_FORMATION_WITH_SPECIFIED_SOURCE ( 'ANY', '', #14, .NOT_KNOWN. ) ;
#38 = PERSON_AND_ORGANIZATION ( #164, #99 ) ;
#39 = EDGE_LOOP ( 'NONE', ( #240 ) ) ;
#40 = PERSON_AND_ORGANIZATION ( #164, #99 ) ;
#41 = ORIENTED_EDGE ( 'NONE', *, *, #177, .F. ) ;
#42 = CIRCLE ( 'NONE', #172, 2.368999999999999773 ) ;
#43 = DIRECTION ( 'NONE',  ( -3.491481338843133355E-15, 9.031770143711729009E-17, -1.000000000000000000 ) ) ;
#44 = DIRECTION ( 'NONE',  ( -3.491481338843133355E-15, -4.887912471180449615E-16, -1.000000000000000000 ) ) ;
#45 = DIRECTION ( 'NONE',  ( 0.0000000000000000000, 1.000000000000000000, 0.0000000000000000000 ) ) ;
#46 = CIRCLE ( 'NONE', #168, 2.368999999999997996 ) ;
#47 = DIRECTION ( 'NONE',  ( 1.706605517902516581E-30, -1.000000000000000000, 4.887912471180449615E-16 ) ) ;
#48 = DATE_AND_TIME ( #227, #221 ) ;
#49 = APPROVAL ( #233, 'UNSPECIFIED' ) ;
#50 = DIRECTION ( 'NONE',  ( 0.0000000000000000000, 1.000000000000000000, 0.0000000000000000000 ) ) ;
#51 = DIRECTION ( 'NONE',  ( -3.491481338843133355E-15, -4.887912471180449615E-16, -1.000000000000000000 ) ) ;
#52 = CARTESIAN_POINT ( 'NONE',  ( 4.662081348578306328E-14, -1.205988033308421952E-15, 13.35273168071131522 ) ) ;
#53 = CARTESIAN_POINT ( 'NONE',  ( 4.662081348578306328E-14, 2.368999999999998440, 13.35273168071131522 ) ) ;
#54 = DIRECTION ( 'NONE',  ( -3.491481338843133355E-15, 9.031770143711729009E-17, -1.000000000000000000 ) ) ;
#55 = ADVANCED_FACE ( 'NONE', ( #4 ), #153, .T. ) ;
#56 = AXIS2_PLACEMENT_3D ( 'NONE', #62, #222, #151 ) ;
#57 = LOCAL_TIME ( 11, 3, 11.00000000000000000, #178 ) ;
#58 = EDGE_LOOP ( 'NONE', ( #184 ) ) ;
#59 = ORIENTED_EDGE ( 'NONE', *, *, #212, .F. ) ;
#60 = APPROVAL_ROLE ( '' ) ;
#61 = EDGE_LOOP ( 'NONE', ( #107 ) ) ;
#62 = CARTESIAN_POINT ( 'NONE',  ( 4.662081348578305697E-14, 2.368999999999998440, 13.35273168071131344 ) ) ;
#63 = ORIENTED_EDGE ( 'NONE', *, *, #140, .F. ) ;
#64 = LOCAL_TIME ( 11, 3, 11.00000000000000000, #228 ) ;
#65 = DATE_AND_TIME ( #185, #143 ) ;
#66 = FACE_BOUND ( 'NONE', #12, .T. ) ;
#67 = PRODUCT_RELATED_PRODUCT_CATEGORY ( 'detail', '', ( #14 ) ) ;
#68 = FACE_OUTER_BOUND ( 'NONE', #167, .T. ) ;
#69 = COORDINATED_UNIVERSAL_TIME_OFFSET ( 1, 0, .AHEAD. ) ;
#70 = CONICAL_SURFACE ( 'NONE', #116, 1.999999999999995337, 0.7853981633974516097 ) ;
#71 = APPLICATION_CONTEXT ( 'configuration controlled 3d designs of mechanical parts and assemblies' ) ;
#72 = CC_DESIGN_DATE_AND_TIME_ASSIGNMENT ( #48, #10, ( #27 ) ) ;
#73 = DIRECTION ( 'NONE',  ( 3.153425691349006731E-31, 1.000000000000000000, 9.031770143711729009E-17 ) ) ;
#74 = CALENDAR_DATE ( 2021, 26, 11 ) ;
#75 = AXIS2_PLACEMENT_3D ( 'NONE', #28, #162, #192 ) ;
#76 = VERTEX_POINT ( 'NONE', #213 ) ;
#77 = PERSON_AND_ORGANIZATION ( #164, #99 ) ;
#78 = FACE_OUTER_BOUND ( 'NONE', #199, .T. ) ;
#79 = FACE_OUTER_BOUND ( 'NONE', #180, .T. ) ;
#80 = CARTESIAN_POINT ( 'NONE',  ( 0.0000000000000000000, 0.0000000000000000000, 0.0000000000000000000 ) ) ;
#81 = DIRECTION ( 'NONE',  ( -1.706605517902516581E-30, 1.000000000000000000, -4.887912471180449615E-16 ) ) ;
#82 = ADVANCED_FACE ( 'NONE', ( #68 ), #17, .T. ) ;
#83 = CARTESIAN_POINT ( 'NONE',  ( -1.824412404923225502E-30, 2.138059892324148059, -5.225324805910967105E-16 ) ) ;
#84 = CC_DESIGN_PERSON_AND_ORGANIZATION_ASSIGNMENT ( #127, #20, ( #14 ) ) ;
#85 = PERSON_AND_ORGANIZATION ( #164, #99 ) ;
#86 = AXIS2_PLACEMENT_3D ( 'NONE', #169, #36, #111 ) ;
#87 = EDGE_LOOP ( 'NONE', ( #225 ) ) ;
#88 = APPROVAL_PERSON_ORGANIZATION ( #40, #49, #13 ) ;
#89 = VERTEX_POINT ( 'NONE', #235 ) ;
#90 = MECHANICAL_CONTEXT ( 'NONE', #110, 'mechanical' ) ;
#91 = DIRECTION ( 'NONE',  ( 3.491481338843133355E-15, 4.887912471180449615E-16, 1.000000000000000000 ) ) ;
#92 = APPROVAL_DATE_TIME ( #190, #49 ) ;
#93 = ADVANCED_FACE ( 'NONE', ( #66, #136 ), #70, .T. ) ;
#94 = CIRCLE ( 'NONE', #134, 1.999999999999995337 ) ;
#95 =( NAMED_UNIT ( * ) PLANE_ANGLE_UNIT ( ) SI_UNIT ( $, .RADIAN. ) );
#96 = CARTESIAN_POINT ( 'NONE',  ( 2.793185071074506684E-13, -7.225416114969383207E-15, 80.00000000000000000 ) ) ;
#97 = EDGE_CURVE ( 'NONE', #89, #89, #105, .T. ) ;
#98 = EDGE_LOOP ( 'NONE', ( #115 ) ) ;
#99 = ORGANIZATION ( 'UNSPECIFIED', 'UNSPECIFIED', '' ) ;
#100 = CARTESIAN_POINT ( 'NONE',  ( 3.648824809846451005E-30, 5.108186056956155217E-31, 1.045064961182193421E-15 ) ) ;
#101 = FACE_OUTER_BOUND ( 'NONE', #131, .T. ) ;
#102 = VERTEX_POINT ( 'NONE', #128 ) ;
#103 = ADVANCED_FACE ( 'NONE', ( #208, #176 ), #241, .T. ) ;
#104 = CARTESIAN_POINT ( 'NONE',  ( 1.396592535537252948E-15, 2.368999999999997996, 0.3999999999999999112 ) ) ;
#105 = CIRCLE ( 'NONE', #120, 1.999999999999991784 ) ;
#106 = PERSON_AND_ORGANIZATION ( #164, #99 ) ;
#107 = ORIENTED_EDGE ( 'NONE', *, *, #224, .T. ) ;
#108 = ORIENTED_EDGE ( 'NONE', *, *, #148, .T. ) ;
#109 = PERSON_AND_ORGANIZATION ( #164, #99 ) ;
#110 = APPLICATION_CONTEXT ( 'configuration controlled 3d designs of mechanical parts and assemblies' ) ;
#111 = DIRECTION ( 'NONE',  ( 0.0000000000000000000, 1.000000000000000000, 0.0000000000000000000 ) ) ;
#112 = DIRECTION ( 'NONE',  ( -3.491481338843133355E-15, -4.887912471180449615E-16, -1.000000000000000000 ) ) ;
#113 = APPROVAL ( #214, 'UNSPECIFIED' ) ;
#114 = MANIFOLD_SOLID_BREP ( 'Corps-Déplacer/Copier1[1]', #22 ) ;
#115 = ORIENTED_EDGE ( 'NONE', *, *, #148, .F. ) ;
#116 = AXIS2_PLACEMENT_3D ( 'NONE', #139, #138, #45 ) ;
#117 = ORIENTED_EDGE ( 'NONE', *, *, #140, .T. ) ;
#118 = MANIFOLD_SOLID_BREP ( 'Corps-Déplacer/Copier1[2]', #124 ) ;
#119 = PLANE ( 'NONE',  #146 ) ;
#120 = AXIS2_PLACEMENT_3D ( 'NONE', #19, #170, #156 ) ;
#121 = ADVANCED_FACE ( 'NONE', ( #78, #239 ), #195, .T. ) ;
#122 = DIRECTION ( 'NONE',  ( -2.601509422557693453E-30, 1.000000000000000000, -7.322598041269789035E-16 ) ) ;
#123 = VERTEX_POINT ( 'NONE', #194 ) ;
#124 = CLOSED_SHELL ( 'NONE', ( #203, #1, #103, #55 ) ) ;
#125 = CONICAL_SURFACE ( 'NONE', #181, 2.368999999999999773, 0.5235987755982935976 ) ;
#126 = CC_DESIGN_APPROVAL ( #49, ( #37 ) ) ;
#127 = PERSON_AND_ORGANIZATION ( #164, #99 ) ;
#128 = CARTESIAN_POINT ( 'NONE',  ( 2.793185071074506684E-13, 1.599999999999987876, 80.00000000000000000 ) ) ;
#129 =( NAMED_UNIT ( * ) SI_UNIT ( $, .STERADIAN. ) SOLID_ANGLE_UNIT ( ) );
#130 = DIRECTION ( 'NONE',  ( 1.706605517902516231E-30, -1.000000000000000000, 4.887912471180450601E-16 ) ) ;
#131 = EDGE_LOOP ( 'NONE', ( #63 ) ) ;
#132 = DATE_AND_TIME ( #74, #64 ) ;
#133 = PERSON_AND_ORGANIZATION_ROLE ( 'design_supplier' ) ;
#134 = AXIS2_PLACEMENT_3D ( 'NONE', #149, #207, #50 ) ;
#135 = FACE_OUTER_BOUND ( 'NONE', #200, .T. ) ;
#136 = FACE_OUTER_BOUND ( 'NONE', #87, .T. ) ;
#137 = COORDINATED_UNIVERSAL_TIME_OFFSET ( 1, 0, .AHEAD. ) ;
#138 = DIRECTION ( 'NONE',  ( -3.491481338843133355E-15, 9.031770143711729009E-17, -1.000000000000000000 ) ) ;
#139 = CARTESIAN_POINT ( 'NONE',  ( 2.779219145719134403E-13, -7.189289034394536528E-15, 79.60000000000000853 ) ) ;
#140 = EDGE_CURVE ( 'NONE', #76, #76, #150, .T. ) ;
#141 = DIRECTION ( 'NONE',  ( -1.707240558553482081E-30, 1.000000000000000000, -4.805454964583287098E-16 ) ) ;
#142 = CARTESIAN_POINT ( 'NONE',  ( 2.779219145719134403E-13, 1.999999999999988010, 79.60000000000000853 ) ) ;
#143 = LOCAL_TIME ( 11, 3, 11.00000000000000000, #238 ) ;
#144 = SECURITY_CLASSIFICATION_LEVEL ( 'unclassified' ) ;
#145 = PLANE ( 'NONE',  #188 ) ;
#146 = AXIS2_PLACEMENT_3D ( 'NONE', #152, #155, #47 ) ;
#147 = DIRECTION ( 'NONE',  ( -1.706605517902516581E-30, 1.000000000000000000, -4.887912471180449615E-16 ) ) ;
#148 = EDGE_CURVE ( 'NONE', #123, #123, #157, .T. ) ;
#149 = CARTESIAN_POINT ( 'NONE',  ( 2.779219145719134403E-13, -7.189289034394536528E-15, 79.60000000000000853 ) ) ;
#150 = CIRCLE ( 'NONE', #193, 2.368999999999991779 ) ;
#151 = DIRECTION ( 'NONE',  ( 3.153425691349006731E-31, 1.000000000000000000, 9.031770143711729009E-17 ) ) ;
#152 = CARTESIAN_POINT ( 'NONE',  ( 4.662081348578305697E-14, 6.526698370647510865E-15, 13.35273168071131344 ) ) ;
#153 = PLANE ( 'NONE',  #23 ) ;
#154 = APPROVAL_ROLE ( '' ) ;
#155 = DIRECTION ( 'NONE',  ( 3.491481338843133355E-15, 4.887912471180449615E-16, 1.000000000000000000 ) ) ;
#156 = DIRECTION ( 'NONE',  ( 0.0000000000000000000, 1.000000000000000000, 0.0000000000000000000 ) ) ;
#157 = CIRCLE ( 'NONE', #215, 2.138059892324148059 ) ;
#158 = SECURITY_CLASSIFICATION ( '', '', #144 ) ;
#159 = CC_DESIGN_DATE_AND_TIME_ASSIGNMENT ( #65, #29, ( #158 ) ) ;
#160 = PERSON_AND_ORGANIZATION_ROLE ( 'creator' ) ;
#161 = ADVANCED_FACE ( 'NONE', ( #217 ), #145, .T. ) ;
#162 = DIRECTION ( 'NONE',  ( 0.0000000000000000000, 0.0000000000000000000, 1.000000000000000000 ) ) ;
#163 = LOCAL_TIME ( 11, 3, 11.00000000000000000, #69 ) ;
#164 = PERSON ( 'UNSPECIFIED', 'UNSPECIFIED', 'UNSPECIFIED', ('UNSPECIFIED'), ('UNSPECIFIED'), ('UNSPECIFIED') ) ;
#165 = EDGE_LOOP ( 'NONE', ( #41 ) ) ;
#166 = SHAPE_DEFINITION_REPRESENTATION ( #186, #32 ) ;
#167 = EDGE_LOOP ( 'NONE', ( #226 ) ) ;
#168 = AXIS2_PLACEMENT_3D ( 'NONE', #198, #26, #141 ) ;
#169 = CARTESIAN_POINT ( 'NONE',  ( 2.793185071074506684E-13, -7.225416114969383207E-15, 80.00000000000000000 ) ) ;
#170 = DIRECTION ( 'NONE',  ( -3.491481338843133355E-15, 9.031770143711729009E-17, -1.000000000000000000 ) ) ;
#171 = DESIGN_CONTEXT ( 'detailed design', #71, 'design' ) ;
#172 = AXIS2_PLACEMENT_3D ( 'NONE', #52, #54, #24 ) ;
#173 = APPROVAL_PERSON_ORGANIZATION ( #106, #113, #60 ) ;
#174 = VERTEX_POINT ( 'NONE', #53 ) ;
#175 = CARTESIAN_POINT ( 'NONE',  ( 0.0000000000000000000, 0.0000000000000000000, 0.0000000000000000000 ) ) ;
#176 = FACE_BOUND ( 'NONE', #98, .T. ) ;
#177 = EDGE_CURVE ( 'NONE', #102, #102, #201, .T. ) ;
#178 = COORDINATED_UNIVERSAL_TIME_OFFSET ( 1, 0, .AHEAD. ) ;
#179 = ORIENTED_EDGE ( 'NONE', *, *, #177, .T. ) ;
#180 = EDGE_LOOP ( 'NONE', ( #59 ) ) ;
#181 = AXIS2_PLACEMENT_3D ( 'NONE', #229, #43, #232 ) ;
#182 = APPROVAL_DATE_TIME ( #132, #34 ) ;
#183 = DATE_AND_TIME ( #6, #57 ) ;
#184 = ORIENTED_EDGE ( 'NONE', *, *, #97, .F. ) ;
#185 = CALENDAR_DATE ( 2021, 26, 11 ) ;
#186 = PRODUCT_DEFINITION_SHAPE ( 'NONE', 'NONE',  #27 ) ;
#187 = CC_DESIGN_PERSON_AND_ORGANIZATION_ASSIGNMENT ( #38, #133, ( #37 ) ) ;
#188 = AXIS2_PLACEMENT_3D ( 'NONE', #96, #33, #242 ) ;
#189 = PERSON_AND_ORGANIZATION_ROLE ( 'creator' ) ;
#190 = DATE_AND_TIME ( #16, #163 ) ;
#191 = CC_DESIGN_APPROVAL ( #34, ( #27 ) ) ;
#192 = DIRECTION ( 'NONE',  ( 1.000000000000000000, 0.0000000000000000000, 0.0000000000000000000 ) ) ;
#193 = AXIS2_PLACEMENT_3D ( 'NONE', #231, #206, #122 ) ;
#194 = CARTESIAN_POINT ( 'NONE',  ( 0.0000000000000000000, 2.138059892324148059, 0.0000000000000000000 ) ) ;
#195 = CYLINDRICAL_SURFACE ( 'NONE', #2, 1.999999999999993561 ) ;
#196 = VERTEX_POINT ( 'NONE', #104 ) ;
#197 = CC_DESIGN_PERSON_AND_ORGANIZATION_ASSIGNMENT ( #109, #160, ( #37 ) ) ;
#198 = CARTESIAN_POINT ( 'NONE',  ( 1.396592535537256892E-15, 1.955164988472185121E-16, 0.4000000000000010214 ) ) ;
#199 = EDGE_LOOP ( 'NONE', ( #220 ) ) ;
#200 = EDGE_LOOP ( 'NONE', ( #117 ) ) ;
#201 = CIRCLE ( 'NONE', #86, 1.599999999999994982 ) ;
#202 = PERSON_AND_ORGANIZATION ( #164, #99 ) ;
#203 = ADVANCED_FACE ( 'NONE', ( #101 ), #119, .T. ) ;
#204 = DIRECTION ( 'NONE',  ( -3.491481338843133355E-15, 9.031770143711729009E-17, -1.000000000000000000 ) ) ;
#205 = DIRECTION ( 'NONE',  ( -1.706605517902516231E-30, 1.000000000000000000, -4.887912471180450601E-16 ) ) ;
#206 = DIRECTION ( 'NONE',  ( -3.491481338843133355E-15, -4.887912471180449615E-16, -1.000000000000000000 ) ) ;
#207 = DIRECTION ( 'NONE',  ( -3.491481338843133355E-15, 9.031770143711729009E-17, -1.000000000000000000 ) ) ;
#208 = FACE_OUTER_BOUND ( 'NONE', #61, .T. ) ;
#209 = FACE_BOUND ( 'NONE', #39, .T. ) ;
#210 = APPROVAL_STATUS ( 'not_yet_approved' ) ;
#211 =( GEOMETRIC_REPRESENTATION_CONTEXT ( 3 ) GLOBAL_UNCERTAINTY_ASSIGNED_CONTEXT ( ( #234 ) ) GLOBAL_UNIT_ASSIGNED_CONTEXT ( ( #30, #95, #129 ) ) REPRESENTATION_CONTEXT ( 'NONE', 'WORKASPACE' ) );
#212 = EDGE_CURVE ( 'NONE', #174, #174, #42, .T. ) ;
#213 = CARTESIAN_POINT ( 'NONE',  ( 4.662081348578306328E-14, 2.368999999999998440, 13.35273168071131522 ) ) ;
#214 = APPROVAL_STATUS ( 'not_yet_approved' ) ;
#215 = AXIS2_PLACEMENT_3D ( 'NONE', #100, #51, #205 ) ;
#216 = CC_DESIGN_APPROVAL ( #113, ( #158 ) ) ;
#217 = FACE_OUTER_BOUND ( 'NONE', #165, .T. ) ;
#218 = APPROVAL_DATE_TIME ( #183, #113 ) ;
#219 = EDGE_LOOP ( 'NONE', ( #8 ) ) ;
#220 = ORIENTED_EDGE ( 'NONE', *, *, #3, .T. ) ;
#221 = LOCAL_TIME ( 11, 3, 11.00000000000000000, #137 ) ;
#222 = DIRECTION ( 'NONE',  ( -3.491481338843133355E-15, 9.031770143711729009E-17, -1.000000000000000000 ) ) ;
#223 = CC_DESIGN_SECURITY_CLASSIFICATION ( #158, ( #37 ) ) ;
#224 = EDGE_CURVE ( 'NONE', #196, #196, #46, .T. ) ;
#225 = ORIENTED_EDGE ( 'NONE', *, *, #3, .F. ) ;
#226 = ORIENTED_EDGE ( 'NONE', *, *, #212, .T. ) ;
#227 = CALENDAR_DATE ( 2021, 26, 11 ) ;
#228 = COORDINATED_UNIVERSAL_TIME_OFFSET ( 1, 0, .AHEAD. ) ;
#229 = CARTESIAN_POINT ( 'NONE',  ( 4.662081348578306328E-14, -1.205988033308421952E-15, 13.35273168071131522 ) ) ;
#230 = APPLICATION_PROTOCOL_DEFINITION ( 'international standard', 'config_control_design', 1994, #71 ) ;
#231 = CARTESIAN_POINT ( 'NONE',  ( 4.662081348578306959E-14, 6.526698370647513232E-15, 13.35273168071131700 ) ) ;
#232 = DIRECTION ( 'NONE',  ( 0.0000000000000000000, 1.000000000000000000, 0.0000000000000000000 ) ) ;
#233 = APPROVAL_STATUS ( 'not_yet_approved' ) ;
#234 = UNCERTAINTY_MEASURE_WITH_UNIT (LENGTH_MEASURE( 1.000000000000000082E-05 ), #30, 'distance_accuracy_value', 'NONE');
#235 = CARTESIAN_POINT ( 'NONE',  ( 4.885231259955590439E-14, 1.999999999999990452, 13.99185842870425134 ) ) ;
#236 = CC_DESIGN_PERSON_AND_ORGANIZATION_ASSIGNMENT ( #202, #189, ( #27 ) ) ;
#237 = AXIS2_PLACEMENT_3D ( 'NONE', #80, #112, #147 ) ;
#238 = COORDINATED_UNIVERSAL_TIME_OFFSET ( 1, 0, .AHEAD. ) ;
#239 = FACE_OUTER_BOUND ( 'NONE', #58, .T. ) ;
#240 = ORIENTED_EDGE ( 'NONE', *, *, #97, .T. ) ;
#241 = CONICAL_SURFACE ( 'NONE', #11, 2.138059892324148059, 0.5235987755982979275 ) ;
#242 = DIRECTION ( 'NONE',  ( -3.153425691349006731E-31, -1.000000000000000000, -9.031770143711729009E-17 ) ) ;
#243 = ADVANCED_FACE ( 'NONE', ( #209, #79 ), #125, .T. ) ;
ENDSEC;
END-ISO-10303-21;
