ISO-10303-21;
HEADER;
FILE_DESCRIPTION (( 'STEP AP203' ),
    '1' );
FILE_NAME ('321376.step',
    '2021-11-26T10:03:10',
    ( '' ),
    ( '' ),
    'SwSTEP 2.0',
    'SolidWorks 2019',
    '' );
FILE_SCHEMA (( 'CONFIG_CONTROL_DESIGN' ));
ENDSEC;

DATA;
#1 = PERSON_AND_ORGANIZATION ( #210, #32 ) ;
#2 = DIRECTION ( 'NONE',  ( 0.0000000000000000000, 1.000000000000000000, 0.0000000000000000000 ) ) ;
#3 = ADVANCED_FACE ( 'NONE', ( #6 ), #161, .T. ) ;
#4 = MECHANICAL_CONTEXT ( 'NONE', #12, 'mechanical' ) ;
#5 = CARTESIAN_POINT ( 'NONE',  ( 4.665105060114584464E-14, 6.524577220170069454E-15, 13.36139193474916098 ) ) ;
#6 = FACE_OUTER_BOUND ( 'NONE', #226, .T. ) ;
#7 = CC_DESIGN_DATE_AND_TIME_ASSIGNMENT ( #229, #149, ( #107 ) ) ;
#8 = EDGE_LOOP ( 'NONE', ( #127 ) ) ;
#9 = PERSON_AND_ORGANIZATION_ROLE ( 'creator' ) ;
#10 = ORIENTED_EDGE ( 'NONE', *, *, #27, .T. ) ;
#11 = DIRECTION ( 'NONE',  ( -3.491481338843133355E-15, -4.883156823804793916E-16, -1.000000000000000000 ) ) ;
#12 = APPLICATION_CONTEXT ( 'configuration controlled 3d designs of mechanical parts and assemblies' ) ;
#13 = PERSON_AND_ORGANIZATION_ROLE ( 'design_supplier' ) ;
#14 = AXIS2_PLACEMENT_3D ( 'NONE', #211, #42, #2 ) ;
#15 = APPROVAL_STATUS ( 'not_yet_approved' ) ;
#16 = FACE_BOUND ( 'NONE', #225, .T. ) ;
#17 = CARTESIAN_POINT ( 'NONE',  ( 1.396592535537252948E-15, 2.363999999999997659, 0.3999999999999999112 ) ) ;
#18 = ORIENTED_EDGE ( 'NONE', *, *, #89, .T. ) ;
#19 = AXIS2_PLACEMENT_3D ( 'NONE', #153, #213, #176 ) ;
#20 = CARTESIAN_POINT ( 'NONE',  ( 0.0000000000000000000, 0.0000000000000000000, 0.0000000000000000000 ) ) ;
#21 = PLANE ( 'NONE',  #90 ) ;
#22 = EDGE_CURVE ( 'NONE', #195, #195, #136, .T. ) ;
#23 = ADVANCED_BREP_SHAPE_REPRESENTATION ( '321376', ( #138, #134, #186 ), #236 ) ;
#24 = VERTEX_POINT ( 'NONE', #45 ) ;
#25 = EDGE_LOOP ( 'NONE', ( #160 ) ) ;
#26 = PLANE ( 'NONE',  #215 ) ;
#27 = EDGE_CURVE ( 'NONE', #24, #24, #223, .T. ) ;
#28 = FACE_OUTER_BOUND ( 'NONE', #31, .T. ) ;
#29 = LOCAL_TIME ( 11, 3, 10.00000000000000000, #209 ) ;
#30 = ORIENTED_EDGE ( 'NONE', *, *, #235, .T. ) ;
#31 = EDGE_LOOP ( 'NONE', ( #10 ) ) ;
#32 = ORGANIZATION ( 'UNSPECIFIED', 'UNSPECIFIED', '' ) ;
#33 = CC_DESIGN_APPROVAL ( #111, ( #242 ) ) ;
#34 = CARTESIAN_POINT ( 'NONE',  ( 1.396592535537256892E-15, 1.953262729521922694E-16, 0.4000000000000010214 ) ) ;
#35 = PERSON_AND_ORGANIZATION ( #210, #32 ) ;
#36 = PERSON_AND_ORGANIZATION ( #210, #32 ) ;
#37 = DIRECTION ( 'NONE',  ( -1.704945092495894304E-30, 1.000000000000000000, -4.883156823804793916E-16 ) ) ;
#38 = APPROVAL_PERSON_ORGANIZATION ( #231, #131, #212 ) ;
#39 = CALENDAR_DATE ( 2021, 26, 11 ) ;
#40 =( NAMED_UNIT ( * ) SI_UNIT ( $, .STERADIAN. ) SOLID_ANGLE_UNIT ( ) );
#41 = CC_DESIGN_PERSON_AND_ORGANIZATION_ASSIGNMENT ( #36, #204, ( #107 ) ) ;
#42 = DIRECTION ( 'NONE',  ( -3.491481338843133355E-15, 9.031770143711729009E-17, -1.000000000000000000 ) ) ;
#43 = CARTESIAN_POINT ( 'NONE',  ( 0.0000000000000000000, 0.0000000000000000000, 0.0000000000000000000 ) ) ;
#44 = DIRECTION ( 'NONE',  ( 1.704945092495893954E-30, -1.000000000000000000, 4.883156823804793916E-16 ) ) ;
#45 = CARTESIAN_POINT ( 'NONE',  ( 4.665105060114583833E-14, 2.363999999999998103, 13.36139193474915920 ) ) ;
#46 = EDGE_CURVE ( 'NONE', #198, #198, #141, .T. ) ;
#47 = AXIS2_PLACEMENT_3D ( 'NONE', #205, #232, #117 ) ;
#48 = DIRECTION ( 'NONE',  ( 0.0000000000000000000, 0.0000000000000000000, 1.000000000000000000 ) ) ;
#49 = DIRECTION ( 'NONE',  ( 3.491481338843133355E-15, 4.883156823804793916E-16, 1.000000000000000000 ) ) ;
#50 = EDGE_LOOP ( 'NONE', ( #177 ) ) ;
#51 = CC_DESIGN_DATE_AND_TIME_ASSIGNMENT ( #96, #170, ( #242 ) ) ;
#52 = ORIENTED_EDGE ( 'NONE', *, *, #27, .F. ) ;
#53 = DIRECTION ( 'NONE',  ( -3.491481338843133355E-15, 9.031770143711729009E-17, -1.000000000000000000 ) ) ;
#54 = EDGE_LOOP ( 'NONE', ( #106 ) ) ;
#55 = CALENDAR_DATE ( 2021, 26, 11 ) ;
#56 = AXIS2_PLACEMENT_3D ( 'NONE', #20, #118, #137 ) ;
#57 = APPROVAL_STATUS ( 'not_yet_approved' ) ;
#58 = DIRECTION ( 'NONE',  ( 3.491481338843133355E-15, -9.031770143711729009E-17, 1.000000000000000000 ) ) ;
#59 = EDGE_CURVE ( 'NONE', #178, #178, #203, .T. ) ;
#60 = FACE_OUTER_BOUND ( 'NONE', #25, .T. ) ;
#61 = AXIS2_PLACEMENT_3D ( 'NONE', #99, #174, #44 ) ;
#62 = LOCAL_TIME ( 11, 3, 10.00000000000000000, #173 ) ;
#63 = APPROVAL_STATUS ( 'not_yet_approved' ) ;
#64 = EDGE_CURVE ( 'NONE', #67, #67, #84, .T. ) ;
#65 = FACE_OUTER_BOUND ( 'NONE', #123, .T. ) ;
#66 = DATE_AND_TIME ( #55, #62 ) ;
#67 = VERTEX_POINT ( 'NONE', #17 ) ;
#68 = PERSON_AND_ORGANIZATION_ROLE ( 'classification_officer' ) ;
#69 = AXIS2_PLACEMENT_3D ( 'NONE', #74, #49, #126 ) ;
#70 = CARTESIAN_POINT ( 'NONE',  ( 4.665105060114583833E-14, -1.206770207546981446E-15, 13.36139193474915920 ) ) ;
#71 = PERSON_AND_ORGANIZATION_ROLE ( 'design_owner' ) ;
#72 = FACE_OUTER_BOUND ( 'NONE', #85, .T. ) ;
#73 = LOCAL_TIME ( 11, 3, 10.00000000000000000, #82 ) ;
#74 = CARTESIAN_POINT ( 'NONE',  ( 4.665105060114583202E-14, 6.524577220170068666E-15, 13.36139193474915743 ) ) ;
#75 = DIRECTION ( 'NONE',  ( -3.491481338843133355E-15, 9.031770143711729009E-17, -1.000000000000000000 ) ) ;
#76 = DIRECTION ( 'NONE',  ( -1.710851473440439795E-30, 1.000000000000000000, -4.815618786420392935E-16 ) ) ;
#77 = APPROVAL_ROLE ( '' ) ;
#78 = PRODUCT_DEFINITION_SHAPE ( 'NONE', 'NONE',  #107 ) ;
#79 = DIRECTION ( 'NONE',  ( 0.0000000000000000000, 1.000000000000000000, 0.0000000000000000000 ) ) ;
#80 = CIRCLE ( 'NONE', #197, 2.133059892324147722 ) ;
#81 = ADVANCED_FACE ( 'NONE', ( #60 ), #147, .T. ) ;
#82 = COORDINATED_UNIVERSAL_TIME_OFFSET ( 1, 0, .AHEAD. ) ;
#83 = COORDINATED_UNIVERSAL_TIME_OFFSET ( 1, 0, .AHEAD. ) ;
#84 = CIRCLE ( 'NONE', #191, 2.363999999999997659 ) ;
#85 = EDGE_LOOP ( 'NONE', ( #30 ) ) ;
#86 = VERTEX_POINT ( 'NONE', #139 ) ;
#87 = APPLICATION_PROTOCOL_DEFINITION ( 'international standard', 'config_control_design', 1994, #12 ) ;
#88 = CARTESIAN_POINT ( 'NONE',  ( 4.665105060114583202E-14, 2.363999999999998103, 13.36139193474915743 ) ) ;
#89 = EDGE_CURVE ( 'NONE', #86, #86, #80, .T. ) ;
#90 = AXIS2_PLACEMENT_3D ( 'NONE', #88, #124, #238 ) ;
#91 = APPROVAL_PERSON_ORGANIZATION ( #1, #111, #108 ) ;
#92 = CARTESIAN_POINT ( 'NONE',  ( -1.818374997708938459E-30, 2.133059892324147722, -5.208032984393490406E-16 ) ) ;
#93 = CONICAL_SURFACE ( 'NONE', #19, 2.363999999999999435, 0.5235987755982925984 ) ;
#94 = EDGE_LOOP ( 'NONE', ( #202 ) ) ;
#95 = DATE_AND_TIME ( #187, #29 ) ;
#96 = DATE_AND_TIME ( #39, #164 ) ;
#97 = FACE_OUTER_BOUND ( 'NONE', #50, .T. ) ;
#98 = CONICAL_SURFACE ( 'NONE', #61, 2.133059892324147722, 0.5235987755982979275 ) ;
#99 = CARTESIAN_POINT ( 'NONE',  ( 3.636749995417876917E-30, 5.086328361268304636E-31, 1.041606596878698081E-15 ) ) ;
#100 = CC_DESIGN_PERSON_AND_ORGANIZATION_ASSIGNMENT ( #158, #71, ( #184 ) ) ;
#101 = CARTESIAN_POINT ( 'NONE',  ( 4.885231259955590439E-14, 1.999999999999990452, 13.99185842870425134 ) ) ;
#102 = EDGE_LOOP ( 'NONE', ( #109 ) ) ;
#103 = ORIENTED_EDGE ( 'NONE', *, *, #64, .T. ) ;
#104 = CC_DESIGN_APPROVAL ( #241, ( #181 ) ) ;
#105 = FACE_OUTER_BOUND ( 'NONE', #221, .T. ) ;
#106 = ORIENTED_EDGE ( 'NONE', *, *, #235, .F. ) ;
#107 = PRODUCT_DEFINITION ( 'UNKNOWN', '', #181, #119 ) ;
#108 = APPROVAL_ROLE ( '' ) ;
#109 = ORIENTED_EDGE ( 'NONE', *, *, #89, .F. ) ;
#110 = EDGE_LOOP ( 'NONE', ( #18 ) ) ;
#111 = APPROVAL ( #63, 'UNSPECIFIED' ) ;
#112 = CALENDAR_DATE ( 2021, 26, 11 ) ;
#113 = PERSON_AND_ORGANIZATION ( #210, #32 ) ;
#114 = AXIS2_PLACEMENT_3D ( 'NONE', #70, #217, #122 ) ;
#115 = PERSON_AND_ORGANIZATION ( #210, #32 ) ;
#116 = CC_DESIGN_PERSON_AND_ORGANIZATION_ASSIGNMENT ( #113, #13, ( #181 ) ) ;
#117 = DIRECTION ( 'NONE',  ( 0.0000000000000000000, 1.000000000000000000, 0.0000000000000000000 ) ) ;
#118 = DIRECTION ( 'NONE',  ( -3.491481338843133355E-15, -4.883156823804793916E-16, -1.000000000000000000 ) ) ;
#119 = DESIGN_CONTEXT ( 'detailed design', #219, 'design' ) ;
#120 = AXIS2_PLACEMENT_3D ( 'NONE', #150, #53, #79 ) ;
#121 = CARTESIAN_POINT ( 'NONE',  ( 4.665105060114583833E-14, 2.363999999999998103, 13.36139193474915920 ) ) ;
#122 = DIRECTION ( 'NONE',  ( 0.0000000000000000000, 1.000000000000000000, 0.0000000000000000000 ) ) ;
#123 = EDGE_LOOP ( 'NONE', ( #222 ) ) ;
#124 = DIRECTION ( 'NONE',  ( -3.491481338843133355E-15, 9.031770143711729009E-17, -1.000000000000000000 ) ) ;
#125 = ADVANCED_FACE ( 'NONE', ( #16, #171 ), #93, .T. ) ;
#126 = DIRECTION ( 'NONE',  ( 1.704945092495894655E-30, -1.000000000000000000, 4.883156823804793916E-16 ) ) ;
#127 = ORIENTED_EDGE ( 'NONE', *, *, #59, .F. ) ;
#128 = CLOSED_SHELL ( 'NONE', ( #3, #185, #196, #169 ) ) ;
#129 = DIRECTION ( 'NONE',  ( -2.607011769052105275E-30, 1.000000000000000000, -7.338085769783474308E-16 ) ) ;
#130 = DIRECTION ( 'NONE',  ( -3.153425691349006731E-31, -1.000000000000000000, -9.031770143711729009E-17 ) ) ;
#131 = APPROVAL ( #15, 'UNSPECIFIED' ) ;
#132 = CARTESIAN_POINT ( 'NONE',  ( 3.636749995417876917E-30, 5.086328361268304636E-31, 1.041606596878698081E-15 ) ) ;
#133 = DIRECTION ( 'NONE',  ( -3.491481338843133355E-15, -4.883156823804793916E-16, -1.000000000000000000 ) ) ;
#134 = MANIFOLD_SOLID_BREP ( 'Corps-Déplacer/Copier1[2]', #128 ) ;
#135 = APPROVAL_DATE_TIME ( #148, #111 ) ;
#136 = CIRCLE ( 'NONE', #167, 1.999999999999991784 ) ;
#137 = DIRECTION ( 'NONE',  ( -1.704945092495894304E-30, 1.000000000000000000, -4.883156823804793916E-16 ) ) ;
#138 = MANIFOLD_SOLID_BREP ( 'Corps-Déplacer/Copier1[1]', #163 ) ;
#139 = CARTESIAN_POINT ( 'NONE',  ( 6.842277657836020854E-46, 2.133059892324147722, 0.0000000000000000000 ) ) ;
#140 = FACE_OUTER_BOUND ( 'NONE', #110, .T. ) ;
#141 = CIRCLE ( 'NONE', #14, 1.599999999999994982 ) ;
#142 = DIRECTION ( 'NONE',  ( -3.491481338843133355E-15, -4.883156823804793916E-16, -1.000000000000000000 ) ) ;
#143 = APPROVAL_DATE_TIME ( #66, #241 ) ;
#144 = ADVANCED_FACE ( 'NONE', ( #72 ), #21, .T. ) ;
#145 = DIRECTION ( 'NONE',  ( 0.0000000000000000000, 1.000000000000000000, 0.0000000000000000000 ) ) ;
#146 = ORIENTED_EDGE ( 'NONE', *, *, #22, .T. ) ;
#147 = PLANE ( 'NONE',  #179 ) ;
#148 = DATE_AND_TIME ( #112, #73 ) ;
#149 = DATE_TIME_ROLE ( 'creation_date' ) ;
#150 = CARTESIAN_POINT ( 'NONE',  ( 2.779219145719134403E-13, -7.189289034394536528E-15, 79.60000000000000853 ) ) ;
#151 = PRODUCT_RELATED_PRODUCT_CATEGORY ( 'detail', '', ( #184 ) ) ;
#152 = APPLICATION_PROTOCOL_DEFINITION ( 'international standard', 'config_control_design', 1994, #219 ) ;
#153 = CARTESIAN_POINT ( 'NONE',  ( 4.665105060114583833E-14, -1.206770207546981446E-15, 13.36139193474915920 ) ) ;
#154 = CYLINDRICAL_SURFACE ( 'NONE', #56, 2.363999999999994550 ) ;
#155 = CARTESIAN_POINT ( 'NONE',  ( 0.0000000000000000000, 0.0000000000000000000, 0.0000000000000000000 ) ) ;
#156 = ADVANCED_FACE ( 'NONE', ( #194, #175 ), #227, .T. ) ;
#157 = CARTESIAN_POINT ( 'NONE',  ( 2.793185071074506684E-13, 1.599999999999987876, 80.00000000000000000 ) ) ;
#158 = PERSON_AND_ORGANIZATION ( #210, #32 ) ;
#159 = AXIS2_PLACEMENT_3D ( 'NONE', #5, #142, #129 ) ;
#160 = ORIENTED_EDGE ( 'NONE', *, *, #46, .F. ) ;
#161 = PLANE ( 'NONE',  #69 ) ;
#162 = APPROVAL_DATE_TIME ( #95, #131 ) ;
#163 = CLOSED_SHELL ( 'NONE', ( #81, #156, #165, #125, #144 ) ) ;
#164 = LOCAL_TIME ( 11, 3, 10.00000000000000000, #83 ) ;
#165 = ADVANCED_FACE ( 'NONE', ( #65, #97 ), #208, .T. ) ;
#166 = DIRECTION ( 'NONE',  ( -3.491481338843133355E-15, -4.883156823804793916E-16, -1.000000000000000000 ) ) ;
#167 = AXIS2_PLACEMENT_3D ( 'NONE', #239, #75, #145 ) ;
#168 = CALENDAR_DATE ( 2021, 26, 11 ) ;
#169 = ADVANCED_FACE ( 'NONE', ( #140 ), #26, .T. ) ;
#170 = DATE_TIME_ROLE ( 'classification_date' ) ;
#171 = FACE_OUTER_BOUND ( 'NONE', #54, .T. ) ;
#172 = UNCERTAINTY_MEASURE_WITH_UNIT (LENGTH_MEASURE( 1.000000000000000082E-05 ), #189, 'distance_accuracy_value', 'NONE');
#173 = COORDINATED_UNIVERSAL_TIME_OFFSET ( 1, 0, .AHEAD. ) ;
#174 = DIRECTION ( 'NONE',  ( 3.491481338843133355E-15, 4.883156823804793916E-16, 1.000000000000000000 ) ) ;
#175 = FACE_OUTER_BOUND ( 'NONE', #8, .T. ) ;
#176 = DIRECTION ( 'NONE',  ( 0.0000000000000000000, 1.000000000000000000, 0.0000000000000000000 ) ) ;
#177 = ORIENTED_EDGE ( 'NONE', *, *, #22, .F. ) ;
#178 = VERTEX_POINT ( 'NONE', #214 ) ;
#179 = AXIS2_PLACEMENT_3D ( 'NONE', #224, #58, #130 ) ;
#180 =( NAMED_UNIT ( * ) PLANE_ANGLE_UNIT ( ) SI_UNIT ( $, .RADIAN. ) );
#181 = PRODUCT_DEFINITION_FORMATION_WITH_SPECIFIED_SOURCE ( 'ANY', '', #184, .NOT_KNOWN. ) ;
#182 = ORIENTED_EDGE ( 'NONE', *, *, #64, .F. ) ;
#183 = COORDINATED_UNIVERSAL_TIME_OFFSET ( 1, 0, .AHEAD. ) ;
#184 = PRODUCT ( '321376', '321376', '', ( #4 ) ) ;
#185 = ADVANCED_FACE ( 'NONE', ( #28, #105 ), #154, .T. ) ;
#186 = AXIS2_PLACEMENT_3D ( 'NONE', #155, #48, #199 ) ;
#187 = CALENDAR_DATE ( 2021, 26, 11 ) ;
#188 = CIRCLE ( 'NONE', #114, 2.363999999999999435 ) ;
#189 =( LENGTH_UNIT ( ) NAMED_UNIT ( * ) SI_UNIT ( .MILLI., .METRE. ) );
#190 = SHAPE_DEFINITION_REPRESENTATION ( #78, #23 ) ;
#191 = AXIS2_PLACEMENT_3D ( 'NONE', #34, #11, #76 ) ;
#192 = CC_DESIGN_SECURITY_CLASSIFICATION ( #242, ( #181 ) ) ;
#193 = FACE_BOUND ( 'NONE', #102, .T. ) ;
#194 = FACE_BOUND ( 'NONE', #94, .T. ) ;
#195 = VERTEX_POINT ( 'NONE', #101 ) ;
#196 = ADVANCED_FACE ( 'NONE', ( #234, #193 ), #98, .T. ) ;
#197 = AXIS2_PLACEMENT_3D ( 'NONE', #132, #133, #37 ) ;
#198 = VERTEX_POINT ( 'NONE', #157 ) ;
#199 = DIRECTION ( 'NONE',  ( 1.000000000000000000, 0.0000000000000000000, 0.0000000000000000000 ) ) ;
#200 = CC_DESIGN_PERSON_AND_ORGANIZATION_ASSIGNMENT ( #35, #68, ( #242 ) ) ;
#201 = EDGE_LOOP ( 'NONE', ( #103 ) ) ;
#202 = ORIENTED_EDGE ( 'NONE', *, *, #46, .T. ) ;
#203 = CIRCLE ( 'NONE', #120, 1.999999999999995337 ) ;
#204 = PERSON_AND_ORGANIZATION_ROLE ( 'creator' ) ;
#205 = CARTESIAN_POINT ( 'NONE',  ( 2.779219145719134403E-13, -7.189289034394536528E-15, 79.60000000000000853 ) ) ;
#206 = SECURITY_CLASSIFICATION_LEVEL ( 'unclassified' ) ;
#207 = DIRECTION ( 'NONE',  ( -3.491481338843133355E-15, 9.031770143711729009E-17, -1.000000000000000000 ) ) ;
#208 = CYLINDRICAL_SURFACE ( 'NONE', #218, 1.999999999999993561 ) ;
#209 = COORDINATED_UNIVERSAL_TIME_OFFSET ( 1, 0, .AHEAD. ) ;
#210 = PERSON ( 'UNSPECIFIED', 'UNSPECIFIED', 'UNSPECIFIED', ('UNSPECIFIED'), ('UNSPECIFIED'), ('UNSPECIFIED') ) ;
#211 = CARTESIAN_POINT ( 'NONE',  ( 2.793185071074506684E-13, -7.225416114969383207E-15, 80.00000000000000000 ) ) ;
#212 = APPROVAL_ROLE ( '' ) ;
#213 = DIRECTION ( 'NONE',  ( -3.491481338843133355E-15, 9.031770143711729009E-17, -1.000000000000000000 ) ) ;
#214 = CARTESIAN_POINT ( 'NONE',  ( 2.779219145719134403E-13, 1.999999999999988010, 79.60000000000000853 ) ) ;
#215 = AXIS2_PLACEMENT_3D ( 'NONE', #92, #166, #240 ) ;
#216 = CC_DESIGN_PERSON_AND_ORGANIZATION_ASSIGNMENT ( #115, #9, ( #181 ) ) ;
#217 = DIRECTION ( 'NONE',  ( -3.491481338843133355E-15, 9.031770143711729009E-17, -1.000000000000000000 ) ) ;
#218 = AXIS2_PLACEMENT_3D ( 'NONE', #43, #207, #220 ) ;
#219 = APPLICATION_CONTEXT ( 'configuration controlled 3d designs of mechanical parts and assemblies' ) ;
#220 = DIRECTION ( 'NONE',  ( 3.153425691349006731E-31, 1.000000000000000000, 9.031770143711729009E-17 ) ) ;
#221 = EDGE_LOOP ( 'NONE', ( #182 ) ) ;
#222 = ORIENTED_EDGE ( 'NONE', *, *, #59, .T. ) ;
#223 = CIRCLE ( 'NONE', #159, 2.363999999999991442 ) ;
#224 = CARTESIAN_POINT ( 'NONE',  ( 2.793185071074506684E-13, -7.225416114969383207E-15, 80.00000000000000000 ) ) ;
#225 = EDGE_LOOP ( 'NONE', ( #146 ) ) ;
#226 = EDGE_LOOP ( 'NONE', ( #52 ) ) ;
#227 = CONICAL_SURFACE ( 'NONE', #47, 1.999999999999995337, 0.7853981633974516097 ) ;
#228 = LOCAL_TIME ( 11, 3, 10.00000000000000000, #183 ) ;
#229 = DATE_AND_TIME ( #168, #228 ) ;
#230 = VERTEX_POINT ( 'NONE', #121 ) ;
#231 = PERSON_AND_ORGANIZATION ( #210, #32 ) ;
#232 = DIRECTION ( 'NONE',  ( -3.491481338843133355E-15, 9.031770143711729009E-17, -1.000000000000000000 ) ) ;
#233 = APPROVAL_PERSON_ORGANIZATION ( #243, #241, #77 ) ;
#234 = FACE_OUTER_BOUND ( 'NONE', #201, .T. ) ;
#235 = EDGE_CURVE ( 'NONE', #230, #230, #188, .T. ) ;
#236 =( GEOMETRIC_REPRESENTATION_CONTEXT ( 3 ) GLOBAL_UNCERTAINTY_ASSIGNED_CONTEXT ( ( #172 ) ) GLOBAL_UNIT_ASSIGNED_CONTEXT ( ( #189, #180, #40 ) ) REPRESENTATION_CONTEXT ( 'NONE', 'WORKASPACE' ) );
#237 = CC_DESIGN_APPROVAL ( #131, ( #107 ) ) ;
#238 = DIRECTION ( 'NONE',  ( 3.153425691349006731E-31, 1.000000000000000000, 9.031770143711729009E-17 ) ) ;
#239 = CARTESIAN_POINT ( 'NONE',  ( 4.885231259955590439E-14, -1.263712492114123682E-15, 13.99185842870425134 ) ) ;
#240 = DIRECTION ( 'NONE',  ( -1.704945092495894655E-30, 1.000000000000000000, -4.883156823804793916E-16 ) ) ;
#241 = APPROVAL ( #57, 'UNSPECIFIED' ) ;
#242 = SECURITY_CLASSIFICATION ( '', '', #206 ) ;
#243 = PERSON_AND_ORGANIZATION ( #210, #32 ) ;
ENDSEC;
END-ISO-10303-21;
