ISO-10303-21;
HEADER;
FILE_DESCRIPTION (( 'STEP AP203' ),
    '1' );
FILE_NAME ('321375.step',
    '2021-11-26T10:03:09',
    ( '' ),
    ( '' ),
    'SwSTEP 2.0',
    'SolidWorks 2019',
    '' );
FILE_SCHEMA (( 'CONFIG_CONTROL_DESIGN' ));
ENDSEC;

DATA;
#1 = ADVANCED_FACE ( 'NONE', ( #90 ), #27, .T. ) ;
#2 = ADVANCED_FACE ( 'NONE', ( #242, #109 ), #238, .T. ) ;
#3 = DIRECTION ( 'NONE',  ( 0.0000000000000000000, 1.000000000000000000, 0.0000000000000000000 ) ) ;
#4 = CARTESIAN_POINT ( 'NONE',  ( 0.0000000000000000000, 0.0000000000000000000, 0.0000000000000000000 ) ) ;
#5 = VERTEX_POINT ( 'NONE', #82 ) ;
#6 = CARTESIAN_POINT ( 'NONE',  ( 0.0000000000000000000, 0.0000000000000000000, 0.0000000000000000000 ) ) ;
#7 = FACE_OUTER_BOUND ( 'NONE', #145, .T. ) ;
#8 = APPROVAL_DATE_TIME ( #56, #73 ) ;
#9 = DIRECTION ( 'NONE',  ( -1.714477695300211093E-30, 1.000000000000000000, -4.825825693555660913E-16 ) ) ;
#10 = DIRECTION ( 'NONE',  ( -3.491481338843133355E-15, 9.031770143711729009E-17, -1.000000000000000000 ) ) ;
#11 = CC_DESIGN_APPROVAL ( #73, ( #228 ) ) ;
#12 = DIRECTION ( 'NONE',  ( 3.491481338843133355E-15, 4.878407337229966217E-16, 1.000000000000000000 ) ) ;
#13 = CALENDAR_DATE ( 2021, 26, 11 ) ;
#14 = COORDINATED_UNIVERSAL_TIME_OFFSET ( 1, 0, .AHEAD. ) ;
#15 = ADVANCED_BREP_SHAPE_REPRESENTATION ( '321375', ( #221, #137, #197 ), #72 ) ;
#16 = EDGE_LOOP ( 'NONE', ( #67 ) ) ;
#17 = CC_DESIGN_DATE_AND_TIME_ASSIGNMENT ( #190, #173, ( #184 ) ) ;
#18 = COORDINATED_UNIVERSAL_TIME_OFFSET ( 1, 0, .AHEAD. ) ;
#19 = FACE_OUTER_BOUND ( 'NONE', #170, .T. ) ;
#20 = DATE_AND_TIME ( #187, #132 ) ;
#21 = DIRECTION ( 'NONE',  ( 0.0000000000000000000, 1.000000000000000000, 0.0000000000000000000 ) ) ;
#22 = APPROVAL_PERSON_ORGANIZATION ( #64, #237, #44 ) ;
#23 = CARTESIAN_POINT ( 'NONE',  ( 1.396592535537252948E-15, 2.358999999999998654, 0.3999999999999999112 ) ) ;
#24 = ORIENTED_EDGE ( 'NONE', *, *, #232, .F. ) ;
#25 = CC_DESIGN_PERSON_AND_ORGANIZATION_ASSIGNMENT ( #97, #140, ( #184 ) ) ;
#26 = DIRECTION ( 'NONE',  ( -1.703286818121384876E-30, 1.000000000000000000, -4.878407337229966217E-16 ) ) ;
#27 = PLANE ( 'NONE',  #189 ) ;
#28 = DIRECTION ( 'NONE',  ( 0.0000000000000000000, 1.000000000000000000, 0.0000000000000000000 ) ) ;
#29 = CARTESIAN_POINT ( 'NONE',  ( 4.668128771650861968E-14, 2.358999999999998209, 13.37005218878700497 ) ) ;
#30 = ADVANCED_FACE ( 'NONE', ( #39, #83 ), #192, .T. ) ;
#31 = CARTESIAN_POINT ( 'NONE',  ( 2.793185071074506684E-13, -7.225416114969383207E-15, 80.00000000000000000 ) ) ;
#32 = CONICAL_SURFACE ( 'NONE', #129, 2.128059892324148716, 0.5235987755982979275 ) ;
#33 = CARTESIAN_POINT ( 'NONE',  ( 3.624696362768536035E-30, 5.064539550774112067E-31, 1.038154299277894016E-15 ) ) ;
#34 = CC_DESIGN_PERSON_AND_ORGANIZATION_ASSIGNMENT ( #230, #225, ( #228 ) ) ;
#35 = PERSON_AND_ORGANIZATION ( #38, #91 ) ;
#36 = AXIS2_PLACEMENT_3D ( 'NONE', #29, #10, #206 ) ;
#37 = ORIENTED_EDGE ( 'NONE', *, *, #243, .T. ) ;
#38 = PERSON ( 'UNSPECIFIED', 'UNSPECIFIED', 'UNSPECIFIED', ('UNSPECIFIED'), ('UNSPECIFIED'), ('UNSPECIFIED') ) ;
#39 = FACE_OUTER_BOUND ( 'NONE', #211, .T. ) ;
#40 = SECURITY_CLASSIFICATION_LEVEL ( 'unclassified' ) ;
#41 =( NAMED_UNIT ( * ) SI_UNIT ( $, .STERADIAN. ) SOLID_ANGLE_UNIT ( ) );
#42 = APPROVAL_PERSON_ORGANIZATION ( #124, #73, #185 ) ;
#43 = ORIENTED_EDGE ( 'NONE', *, *, #166, .T. ) ;
#44 = APPROVAL_ROLE ( '' ) ;
#45 = VERTEX_POINT ( 'NONE', #118 ) ;
#46 = DIRECTION ( 'NONE',  ( -3.491481338843133355E-15, -4.878407337229966217E-16, -1.000000000000000000 ) ) ;
#47 = PERSON_AND_ORGANIZATION ( #38, #91 ) ;
#48 = CARTESIAN_POINT ( 'NONE',  ( 2.793185071074506684E-13, 1.599999999999987876, 80.00000000000000000 ) ) ;
#49 = MECHANICAL_CONTEXT ( 'NONE', #107, 'mechanical' ) ;
#50 = CARTESIAN_POINT ( 'NONE',  ( 4.668128771650861968E-14, 6.522456069692609900E-15, 13.37005218878700497 ) ) ;
#51 = DIRECTION ( 'NONE',  ( -3.491481338843133355E-15, -4.878407337229966217E-16, -1.000000000000000000 ) ) ;
#52 = CARTESIAN_POINT ( 'NONE',  ( 4.668128771650861968E-14, 6.522456069692609900E-15, 13.37005218878700497 ) ) ;
#53 = DIRECTION ( 'NONE',  ( -3.491481338843133355E-15, 9.031770143711729009E-17, -1.000000000000000000 ) ) ;
#54 = PLANE ( 'NONE',  #61 ) ;
#55 = ORIENTED_EDGE ( 'NONE', *, *, #168, .F. ) ;
#56 = DATE_AND_TIME ( #13, #122 ) ;
#57 = CIRCLE ( 'NONE', #138, 2.358999999999998654 ) ;
#58 = APPLICATION_CONTEXT ( 'configuration controlled 3d designs of mechanical parts and assemblies' ) ;
#59 = EDGE_LOOP ( 'NONE', ( #136 ) ) ;
#60 = COORDINATED_UNIVERSAL_TIME_OFFSET ( 1, 0, .AHEAD. ) ;
#61 = AXIS2_PLACEMENT_3D ( 'NONE', #52, #222, #165 ) ;
#62 = APPROVAL_DATE_TIME ( #98, #237 ) ;
#63 = DIRECTION ( 'NONE',  ( 0.0000000000000000000, 1.000000000000000000, 0.0000000000000000000 ) ) ;
#64 = PERSON_AND_ORGANIZATION ( #38, #91 ) ;
#65 = VERTEX_POINT ( 'NONE', #217 ) ;
#66 = CC_DESIGN_PERSON_AND_ORGANIZATION_ASSIGNMENT ( #35, #134, ( #228 ) ) ;
#67 = ORIENTED_EDGE ( 'NONE', *, *, #243, .F. ) ;
#68 = DIRECTION ( 'NONE',  ( 1.000000000000000000, 0.0000000000000000000, 0.0000000000000000000 ) ) ;
#69 = DIRECTION ( 'NONE',  ( -3.491481338843133355E-15, 9.031770143711729009E-17, -1.000000000000000000 ) ) ;
#70 = CIRCLE ( 'NONE', #226, 2.128059892324148716 ) ;
#71 = CC_DESIGN_PERSON_AND_ORGANIZATION_ASSIGNMENT ( #47, #163, ( #79 ) ) ;
#72 =( GEOMETRIC_REPRESENTATION_CONTEXT ( 3 ) GLOBAL_UNCERTAINTY_ASSIGNED_CONTEXT ( ( #212 ) ) GLOBAL_UNIT_ASSIGNED_CONTEXT ( ( #207, #156, #41 ) ) REPRESENTATION_CONTEXT ( 'NONE', 'WORKASPACE' ) );
#73 = APPROVAL ( #202, 'UNSPECIFIED' ) ;
#74 = ORIENTED_EDGE ( 'NONE', *, *, #240, .F. ) ;
#75 = ADVANCED_FACE ( 'NONE', ( #7 ), #162, .T. ) ;
#76 = CIRCLE ( 'NONE', #158, 2.358999999999991548 ) ;
#77 = APPROVAL_DATE_TIME ( #116, #155 ) ;
#78 = DIRECTION ( 'NONE',  ( -3.491481338843133355E-15, 9.031770143711729009E-17, -1.000000000000000000 ) ) ;
#79 = PRODUCT ( '321375', '321375', '', ( #49 ) ) ;
#80 = APPROVAL_ROLE ( '' ) ;
#81 = CYLINDRICAL_SURFACE ( 'NONE', #235, 2.358999999999995101 ) ;
#82 = CARTESIAN_POINT ( 'NONE',  ( 2.779219145719134403E-13, 1.999999999999988010, 79.60000000000000853 ) ) ;
#83 = FACE_OUTER_BOUND ( 'NONE', #229, .T. ) ;
#84 = CIRCLE ( 'NONE', #111, 1.599999999999994982 ) ;
#85 = EDGE_LOOP ( 'NONE', ( #153 ) ) ;
#86 = DIRECTION ( 'NONE',  ( 0.0000000000000000000, 1.000000000000000000, 0.0000000000000000000 ) ) ;
#87 = DIRECTION ( 'NONE',  ( 0.0000000000000000000, 0.0000000000000000000, 1.000000000000000000 ) ) ;
#88 = EDGE_CURVE ( 'NONE', #157, #157, #210, .T. ) ;
#89 = AXIS2_PLACEMENT_3D ( 'NONE', #103, #123, #3 ) ;
#90 = FACE_OUTER_BOUND ( 'NONE', #16, .T. ) ;
#91 = ORGANIZATION ( 'UNSPECIFIED', 'UNSPECIFIED', '' ) ;
#92 = CLOSED_SHELL ( 'NONE', ( #224, #161, #215, #75 ) ) ;
#93 = AXIS2_PLACEMENT_3D ( 'NONE', #160, #51, #26 ) ;
#94 = EDGE_LOOP ( 'NONE', ( #43 ) ) ;
#95 = DIRECTION ( 'NONE',  ( 0.0000000000000000000, 1.000000000000000000, 0.0000000000000000000 ) ) ;
#96 = CC_DESIGN_APPROVAL ( #155, ( #121 ) ) ;
#97 = PERSON_AND_ORGANIZATION ( #38, #91 ) ;
#98 = DATE_AND_TIME ( #193, #181 ) ;
#99 = VERTEX_POINT ( 'NONE', #178 ) ;
#100 = AXIS2_PLACEMENT_3D ( 'NONE', #102, #218, #63 ) ;
#101 = LOCAL_TIME ( 11, 3, 9.000000000000000000, #114 ) ;
#102 = CARTESIAN_POINT ( 'NONE',  ( 4.885231259955590439E-14, -1.263712492114123682E-15, 13.99185842870425134 ) ) ;
#103 = CARTESIAN_POINT ( 'NONE',  ( 4.668128771650861337E-14, -1.207552381785541136E-15, 13.37005218878700319 ) ) ;
#104 = FACE_BOUND ( 'NONE', #113, .T. ) ;
#105 = FACE_BOUND ( 'NONE', #94, .T. ) ;
#106 = DIRECTION ( 'NONE',  ( -3.491481338843133355E-15, -4.878407337229966217E-16, -1.000000000000000000 ) ) ;
#107 = APPLICATION_CONTEXT ( 'configuration controlled 3d designs of mechanical parts and assemblies' ) ;
#108 = DIRECTION ( 'NONE',  ( -3.153425691349006731E-31, -1.000000000000000000, -9.031770143711729009E-17 ) ) ;
#109 = FACE_OUTER_BOUND ( 'NONE', #209, .T. ) ;
#110 = SHAPE_DEFINITION_REPRESENTATION ( #176, #15 ) ;
#111 = AXIS2_PLACEMENT_3D ( 'NONE', #125, #201, #28 ) ;
#112 = CC_DESIGN_PERSON_AND_ORGANIZATION_ASSIGNMENT ( #151, #227, ( #121 ) ) ;
#113 = EDGE_LOOP ( 'NONE', ( #55 ) ) ;
#114 = COORDINATED_UNIVERSAL_TIME_OFFSET ( 1, 0, .AHEAD. ) ;
#115 = CLOSED_SHELL ( 'NONE', ( #1, #2, #30, #204, #144 ) ) ;
#116 = DATE_AND_TIME ( #141, #139 ) ;
#117 = COORDINATED_UNIVERSAL_TIME_OFFSET ( 1, 0, .AHEAD. ) ;
#118 = CARTESIAN_POINT ( 'NONE',  ( -6.842277657836020854E-46, 2.128059892324148716, 0.0000000000000000000 ) ) ;
#119 = DIRECTION ( 'NONE',  ( -1.703286818121385227E-30, 1.000000000000000000, -4.878407337229967203E-16 ) ) ;
#120 = EDGE_LOOP ( 'NONE', ( #37 ) ) ;
#121 = PRODUCT_DEFINITION ( 'UNKNOWN', '', #228, #171 ) ;
#122 = LOCAL_TIME ( 11, 3, 9.000000000000000000, #14 ) ;
#123 = DIRECTION ( 'NONE',  ( -3.491481338843133355E-15, 9.031770143711729009E-17, -1.000000000000000000 ) ) ;
#124 = PERSON_AND_ORGANIZATION ( #38, #91 ) ;
#125 = CARTESIAN_POINT ( 'NONE',  ( 2.793185071074506684E-13, -7.225416114969383207E-15, 80.00000000000000000 ) ) ;
#126 = APPLICATION_PROTOCOL_DEFINITION ( 'international standard', 'config_control_design', 1994, #107 ) ;
#127 = CARTESIAN_POINT ( 'NONE',  ( 1.396592535537256892E-15, 1.951362934891991614E-16, 0.4000000000000010214 ) ) ;
#128 = APPROVAL_PERSON_ORGANIZATION ( #199, #155, #80 ) ;
#129 = AXIS2_PLACEMENT_3D ( 'NONE', #33, #12, #167 ) ;
#130 = ORIENTED_EDGE ( 'NONE', *, *, #88, .T. ) ;
#131 = PLANE ( 'NONE',  #36 ) ;
#132 = LOCAL_TIME ( 11, 3, 9.000000000000000000, #60 ) ;
#133 = AXIS2_PLACEMENT_3D ( 'NONE', #195, #69, #175 ) ;
#134 = PERSON_AND_ORGANIZATION_ROLE ( 'design_supplier' ) ;
#135 = ORIENTED_EDGE ( 'NONE', *, *, #232, .T. ) ;
#136 = ORIENTED_EDGE ( 'NONE', *, *, #88, .F. ) ;
#137 = MANIFOLD_SOLID_BREP ( 'Corps-Déplacer/Copier1[2]', #92 ) ;
#138 = AXIS2_PLACEMENT_3D ( 'NONE', #127, #200, #9 ) ;
#139 = LOCAL_TIME ( 11, 3, 9.000000000000000000, #18 ) ;
#140 = PERSON_AND_ORGANIZATION_ROLE ( 'classification_officer' ) ;
#141 = CALENDAR_DATE ( 2021, 26, 11 ) ;
#142 = CARTESIAN_POINT ( 'NONE',  ( 3.624696362768536035E-30, 5.064539550774112067E-31, 1.038154299277894016E-15 ) ) ;
#143 = FACE_OUTER_BOUND ( 'NONE', #177, .T. ) ;
#144 = ADVANCED_FACE ( 'NONE', ( #143 ), #131, .T. ) ;
#145 = EDGE_LOOP ( 'NONE', ( #220 ) ) ;
#146 = DIRECTION ( 'NONE',  ( -2.612537440457472030E-30, 1.000000000000000000, -7.353639152084837760E-16 ) ) ;
#147 = CARTESIAN_POINT ( 'NONE',  ( 4.668128771650861337E-14, -1.207552381785541136E-15, 13.37005218878700319 ) ) ;
#148 = FACE_OUTER_BOUND ( 'NONE', #208, .T. ) ;
#149 = CARTESIAN_POINT ( 'NONE',  ( 2.779219145719134403E-13, -7.189289034394536528E-15, 79.60000000000000853 ) ) ;
#150 = CC_DESIGN_DATE_AND_TIME_ASSIGNMENT ( #20, #182, ( #121 ) ) ;
#151 = PERSON_AND_ORGANIZATION ( #38, #91 ) ;
#152 = DIRECTION ( 'NONE',  ( -3.491481338843133355E-15, 9.031770143711729009E-17, -1.000000000000000000 ) ) ;
#153 = ORIENTED_EDGE ( 'NONE', *, *, #196, .T. ) ;
#154 = CC_DESIGN_SECURITY_CLASSIFICATION ( #184, ( #228 ) ) ;
#155 = APPROVAL ( #213, 'UNSPECIFIED' ) ;
#156 =( NAMED_UNIT ( * ) PLANE_ANGLE_UNIT ( ) SI_UNIT ( $, .RADIAN. ) );
#157 = VERTEX_POINT ( 'NONE', #234 ) ;
#158 = AXIS2_PLACEMENT_3D ( 'NONE', #50, #106, #146 ) ;
#159 = DIRECTION ( 'NONE',  ( -3.491481338843133355E-15, -4.878407337229966217E-16, -1.000000000000000000 ) ) ;
#160 = CARTESIAN_POINT ( 'NONE',  ( -1.812348181384268018E-30, 2.128059892324148716, -5.190771496389470078E-16 ) ) ;
#161 = ADVANCED_FACE ( 'NONE', ( #148, #19 ), #81, .T. ) ;
#162 = PLANE ( 'NONE',  #93 ) ;
#163 = PERSON_AND_ORGANIZATION_ROLE ( 'design_owner' ) ;
#164 = CC_DESIGN_APPROVAL ( #237, ( #184 ) ) ;
#165 = DIRECTION ( 'NONE',  ( 1.703286818121384876E-30, -1.000000000000000000, 4.878407337229966217E-16 ) ) ;
#166 = EDGE_CURVE ( 'NONE', #65, #65, #172, .T. ) ;
#167 = DIRECTION ( 'NONE',  ( 1.703286818121384876E-30, -1.000000000000000000, 4.878407337229967203E-16 ) ) ;
#168 = EDGE_CURVE ( 'NONE', #45, #45, #70, .T. ) ;
#169 = DIRECTION ( 'NONE',  ( 3.491481338843133355E-15, -9.031770143711729009E-17, 1.000000000000000000 ) ) ;
#170 = EDGE_LOOP ( 'NONE', ( #205 ) ) ;
#171 = DESIGN_CONTEXT ( 'detailed design', #58, 'design' ) ;
#172 = CIRCLE ( 'NONE', #100, 1.999999999999991784 ) ;
#173 = DATE_TIME_ROLE ( 'classification_date' ) ;
#174 = ORIENTED_EDGE ( 'NONE', *, *, #166, .F. ) ;
#175 = DIRECTION ( 'NONE',  ( 3.153425691349006731E-31, 1.000000000000000000, 9.031770143711729009E-17 ) ) ;
#176 = PRODUCT_DEFINITION_SHAPE ( 'NONE', 'NONE',  #121 ) ;
#177 = EDGE_LOOP ( 'NONE', ( #130 ) ) ;
#178 = CARTESIAN_POINT ( 'NONE',  ( 4.668128771650861337E-14, 2.358999999999998209, 13.37005218878700319 ) ) ;
#179 = FACE_OUTER_BOUND ( 'NONE', #59, .T. ) ;
#180 = APPLICATION_PROTOCOL_DEFINITION ( 'international standard', 'config_control_design', 1994, #58 ) ;
#181 = LOCAL_TIME ( 11, 3, 9.000000000000000000, #117 ) ;
#182 = DATE_TIME_ROLE ( 'creation_date' ) ;
#183 = FACE_OUTER_BOUND ( 'NONE', #85, .T. ) ;
#184 = SECURITY_CLASSIFICATION ( '', '', #40 ) ;
#185 = APPROVAL_ROLE ( '' ) ;
#186 = AXIS2_PLACEMENT_3D ( 'NONE', #219, #53, #86 ) ;
#187 = CALENDAR_DATE ( 2021, 26, 11 ) ;
#188 = PRODUCT_RELATED_PRODUCT_CATEGORY ( 'detail', '', ( #79 ) ) ;
#189 = AXIS2_PLACEMENT_3D ( 'NONE', #31, #169, #108 ) ;
#190 = DATE_AND_TIME ( #231, #101 ) ;
#191 = ORIENTED_EDGE ( 'NONE', *, *, #240, .T. ) ;
#192 = CYLINDRICAL_SURFACE ( 'NONE', #133, 1.999999999999993561 ) ;
#193 = CALENDAR_DATE ( 2021, 26, 11 ) ;
#194 = VERTEX_POINT ( 'NONE', #23 ) ;
#195 = CARTESIAN_POINT ( 'NONE',  ( 0.0000000000000000000, 0.0000000000000000000, 0.0000000000000000000 ) ) ;
#196 = EDGE_CURVE ( 'NONE', #194, #194, #57, .T. ) ;
#197 = AXIS2_PLACEMENT_3D ( 'NONE', #6, #87, #68 ) ;
#198 = CIRCLE ( 'NONE', #186, 1.999999999999995337 ) ;
#199 = PERSON_AND_ORGANIZATION ( #38, #91 ) ;
#200 = DIRECTION ( 'NONE',  ( -3.491481338843133355E-15, -4.878407337229966217E-16, -1.000000000000000000 ) ) ;
#201 = DIRECTION ( 'NONE',  ( -3.491481338843133355E-15, 9.031770143711729009E-17, -1.000000000000000000 ) ) ;
#202 = APPROVAL_STATUS ( 'not_yet_approved' ) ;
#203 = CONICAL_SURFACE ( 'NONE', #214, 2.358999999999999542, 0.5235987755982933756 ) ;
#204 = ADVANCED_FACE ( 'NONE', ( #105, #179 ), #203, .T. ) ;
#205 = ORIENTED_EDGE ( 'NONE', *, *, #196, .F. ) ;
#206 = DIRECTION ( 'NONE',  ( 3.153425691349006731E-31, 1.000000000000000000, 9.031770143711729009E-17 ) ) ;
#207 =( LENGTH_UNIT ( ) NAMED_UNIT ( * ) SI_UNIT ( .MILLI., .METRE. ) );
#208 = EDGE_LOOP ( 'NONE', ( #135 ) ) ;
#209 = EDGE_LOOP ( 'NONE', ( #74 ) ) ;
#210 = CIRCLE ( 'NONE', #89, 2.358999999999999542 ) ;
#211 = EDGE_LOOP ( 'NONE', ( #191 ) ) ;
#212 = UNCERTAINTY_MEASURE_WITH_UNIT (LENGTH_MEASURE( 1.000000000000000082E-05 ), #207, 'distance_accuracy_value', 'NONE');
#213 = APPROVAL_STATUS ( 'not_yet_approved' ) ;
#214 = AXIS2_PLACEMENT_3D ( 'NONE', #147, #78, #21 ) ;
#215 = ADVANCED_FACE ( 'NONE', ( #183, #104 ), #32, .T. ) ;
#216 = APPROVAL_STATUS ( 'not_yet_approved' ) ;
#217 = CARTESIAN_POINT ( 'NONE',  ( 4.885231259955590439E-14, 1.999999999999990452, 13.99185842870425134 ) ) ;
#218 = DIRECTION ( 'NONE',  ( -3.491481338843133355E-15, 9.031770143711729009E-17, -1.000000000000000000 ) ) ;
#219 = CARTESIAN_POINT ( 'NONE',  ( 2.779219145719134403E-13, -7.189289034394536528E-15, 79.60000000000000853 ) ) ;
#220 = ORIENTED_EDGE ( 'NONE', *, *, #168, .T. ) ;
#221 = MANIFOLD_SOLID_BREP ( 'Corps-Déplacer/Copier1[1]', #115 ) ;
#222 = DIRECTION ( 'NONE',  ( 3.491481338843133355E-15, 4.878407337229966217E-16, 1.000000000000000000 ) ) ;
#223 = FACE_OUTER_BOUND ( 'NONE', #239, .T. ) ;
#224 = ADVANCED_FACE ( 'NONE', ( #223 ), #54, .T. ) ;
#225 = PERSON_AND_ORGANIZATION_ROLE ( 'creator' ) ;
#226 = AXIS2_PLACEMENT_3D ( 'NONE', #142, #46, #119 ) ;
#227 = PERSON_AND_ORGANIZATION_ROLE ( 'creator' ) ;
#228 = PRODUCT_DEFINITION_FORMATION_WITH_SPECIFIED_SOURCE ( 'ANY', '', #79, .NOT_KNOWN. ) ;
#229 = EDGE_LOOP ( 'NONE', ( #174 ) ) ;
#230 = PERSON_AND_ORGANIZATION ( #38, #91 ) ;
#231 = CALENDAR_DATE ( 2021, 26, 11 ) ;
#232 = EDGE_CURVE ( 'NONE', #99, #99, #76, .T. ) ;
#233 = DIRECTION ( 'NONE',  ( -1.703286818121384876E-30, 1.000000000000000000, -4.878407337229966217E-16 ) ) ;
#234 = CARTESIAN_POINT ( 'NONE',  ( 4.668128771650861337E-14, 2.358999999999998209, 13.37005218878700319 ) ) ;
#235 = AXIS2_PLACEMENT_3D ( 'NONE', #4, #159, #233 ) ;
#236 = VERTEX_POINT ( 'NONE', #48 ) ;
#237 = APPROVAL ( #216, 'UNSPECIFIED' ) ;
#238 = CONICAL_SURFACE ( 'NONE', #241, 1.999999999999995337, 0.7853981633974516097 ) ;
#239 = EDGE_LOOP ( 'NONE', ( #24 ) ) ;
#240 = EDGE_CURVE ( 'NONE', #5, #5, #198, .T. ) ;
#241 = AXIS2_PLACEMENT_3D ( 'NONE', #149, #152, #95 ) ;
#242 = FACE_BOUND ( 'NONE', #120, .T. ) ;
#243 = EDGE_CURVE ( 'NONE', #236, #236, #84, .T. ) ;
ENDSEC;
END-ISO-10303-21;
