ISO-10303-21;
HEADER;
FILE_DESCRIPTION (( 'STEP AP203' ),
    '1' );
FILE_NAME ('321374.step',
    '2021-11-26T10:03:09',
    ( '' ),
    ( '' ),
    'SwSTEP 2.0',
    'SolidWorks 2019',
    '' );
FILE_SCHEMA (( 'CONFIG_CONTROL_DESIGN' ));
ENDSEC;

DATA;
#1 = DIRECTION ( 'NONE',  ( 0.0000000000000000000, 0.0000000000000000000, 1.000000000000000000 ) ) ;
#2 = CC_DESIGN_DATE_AND_TIME_ASSIGNMENT ( #89, #135, ( #131 ) ) ;
#3 = ADVANCED_FACE ( 'NONE', ( #230, #125 ), #103, .T. ) ;
#4 = FACE_OUTER_BOUND ( 'NONE', #138, .T. ) ;
#5 = CARTESIAN_POINT ( 'NONE',  ( 0.0000000000000000000, 0.0000000000000000000, 0.0000000000000000000 ) ) ;
#6 = PERSON_AND_ORGANIZATION_ROLE ( 'classification_officer' ) ;
#7 =( NAMED_UNIT ( * ) PLANE_ANGLE_UNIT ( ) SI_UNIT ( $, .RADIAN. ) );
#8 = AXIS2_PLACEMENT_3D ( 'NONE', #112, #151, #188 ) ;
#9 = PERSON_AND_ORGANIZATION ( #193, #64 ) ;
#10 = VERTEX_POINT ( 'NONE', #95 ) ;
#11 = PERSON_AND_ORGANIZATION ( #193, #64 ) ;
#12 = PERSON_AND_ORGANIZATION ( #193, #64 ) ;
#13 = FACE_BOUND ( 'NONE', #238, .T. ) ;
#14 = AXIS2_PLACEMENT_3D ( 'NONE', #110, #73, #146 ) ;
#15 = DIRECTION ( 'NONE',  ( -1.701630690601803404E-30, 1.000000000000000000, -4.873663999492035962E-16 ) ) ;
#16 = DIRECTION ( 'NONE',  ( 3.491481338843133355E-15, -9.031770143711729009E-17, 1.000000000000000000 ) ) ;
#17 = EDGE_LOOP ( 'NONE', ( #65 ) ) ;
#18 = ORIENTED_EDGE ( 'NONE', *, *, #24, .T. ) ;
#19 = APPROVAL ( #53, 'UNSPECIFIED' ) ;
#20 = DIRECTION ( 'NONE',  ( 1.000000000000000000, 0.0000000000000000000, 0.0000000000000000000 ) ) ;
#21 = PLANE ( 'NONE',  #66 ) ;
#22 = DIRECTION ( 'NONE',  ( -3.491481338843133355E-15, 9.031770143711729009E-17, -1.000000000000000000 ) ) ;
#23 = DIRECTION ( 'NONE',  ( -3.491481338843133355E-15, -4.873663999492035962E-16, -1.000000000000000000 ) ) ;
#24 = EDGE_CURVE ( 'NONE', #76, #76, #212, .T. ) ;
#25 = CIRCLE ( 'NONE', #154, 2.353999999999997872 ) ;
#26 = AXIS2_PLACEMENT_3D ( 'NONE', #137, #201, #15 ) ;
#27 = APPLICATION_PROTOCOL_DEFINITION ( 'international standard', 'config_control_design', 1994, #44 ) ;
#28 = EDGE_LOOP ( 'NONE', ( #63 ) ) ;
#29 = AXIS2_PLACEMENT_3D ( 'NONE', #119, #158, #46 ) ;
#30 = CIRCLE ( 'NONE', #8, 1.999999999999991784 ) ;
#31 = APPROVAL ( #203, 'UNSPECIFIED' ) ;
#32 = CARTESIAN_POINT ( 'NONE',  ( 4.671152483187138210E-14, -1.208334556024100827E-15, 13.37871244282484717 ) ) ;
#33 = DATE_AND_TIME ( #128, #84 ) ;
#34 = CARTESIAN_POINT ( 'NONE',  ( 4.671152483187138841E-14, 6.520334919215162178E-15, 13.37871244282484895 ) ) ;
#35 = CARTESIAN_POINT ( 'NONE',  ( 2.793185071074506684E-13, -7.225416114969383207E-15, 80.00000000000000000 ) ) ;
#36 = ADVANCED_FACE ( 'NONE', ( #175 ), #37, .T. ) ;
#37 = PLANE ( 'NONE',  #29 ) ;
#38 = AXIS2_PLACEMENT_3D ( 'NONE', #162, #126, #52 ) ;
#39 = COORDINATED_UNIVERSAL_TIME_OFFSET ( 1, 0, .AHEAD. ) ;
#40 = DIRECTION ( 'NONE',  ( -1.701630690601803054E-30, 1.000000000000000000, -4.873663999492034976E-16 ) ) ;
#41 = EDGE_CURVE ( 'NONE', #10, #10, #222, .T. ) ;
#42 = CIRCLE ( 'NONE', #232, 2.123059892324148379 ) ;
#43 = EDGE_LOOP ( 'NONE', ( #159 ) ) ;
#44 = APPLICATION_CONTEXT ( 'configuration controlled 3d designs of mechanical parts and assemblies' ) ;
#45 = EDGE_LOOP ( 'NONE', ( #226 ) ) ;
#46 = DIRECTION ( 'NONE',  ( 1.701630690601803404E-30, -1.000000000000000000, 4.873663999492035962E-16 ) ) ;
#47 = FACE_BOUND ( 'NONE', #43, .T. ) ;
#48 = CARTESIAN_POINT ( 'NONE',  ( 0.0000000000000000000, 0.0000000000000000000, 0.0000000000000000000 ) ) ;
#49 = CC_DESIGN_APPROVAL ( #31, ( #155 ) ) ;
#50 =( LENGTH_UNIT ( ) NAMED_UNIT ( * ) SI_UNIT ( .MILLI., .METRE. ) );
#51 = FACE_OUTER_BOUND ( 'NONE', #177, .T. ) ;
#52 = DIRECTION ( 'NONE',  ( 0.0000000000000000000, 1.000000000000000000, 0.0000000000000000000 ) ) ;
#53 = APPROVAL_STATUS ( 'not_yet_approved' ) ;
#54 =( GEOMETRIC_REPRESENTATION_CONTEXT ( 3 ) GLOBAL_UNCERTAINTY_ASSIGNED_CONTEXT ( ( #122 ) ) GLOBAL_UNIT_ASSIGNED_CONTEXT ( ( #50, #7, #204 ) ) REPRESENTATION_CONTEXT ( 'NONE', 'WORKASPACE' ) );
#55 = PERSON_AND_ORGANIZATION_ROLE ( 'design_owner' ) ;
#56 = MANIFOLD_SOLID_BREP ( 'Corps-Déplacer/Copier1[2]', #60 ) ;
#57 = DIRECTION ( 'NONE',  ( -3.491481338843133355E-15, -4.873663999492035962E-16, -1.000000000000000000 ) ) ;
#58 = DATE_TIME_ROLE ( 'classification_date' ) ;
#59 = ORIENTED_EDGE ( 'NONE', *, *, #173, .T. ) ;
#60 = CLOSED_SHELL ( 'NONE', ( #36, #157, #74, #161 ) ) ;
#61 = ADVANCED_BREP_SHAPE_REPRESENTATION ( '321374', ( #140, #56, #194 ), #54 ) ;
#62 = ORIENTED_EDGE ( 'NONE', *, *, #198, .T. ) ;
#63 = ORIENTED_EDGE ( 'NONE', *, *, #41, .T. ) ;
#64 = ORGANIZATION ( 'UNSPECIFIED', 'UNSPECIFIED', '' ) ;
#65 = ORIENTED_EDGE ( 'NONE', *, *, #240, .F. ) ;
#66 = AXIS2_PLACEMENT_3D ( 'NONE', #153, #109, #87 ) ;
#67 = CC_DESIGN_PERSON_AND_ORGANIZATION_ASSIGNMENT ( #98, #6, ( #155 ) ) ;
#68 = FACE_OUTER_BOUND ( 'NONE', #208, .T. ) ;
#69 = ADVANCED_FACE ( 'NONE', ( #13, #196 ), #120, .T. ) ;
#70 = EDGE_LOOP ( 'NONE', ( #214 ) ) ;
#71 = CARTESIAN_POINT ( 'NONE',  ( 1.396592535537252948E-15, 2.353999999999997872, 0.3999999999999999112 ) ) ;
#72 = CALENDAR_DATE ( 2021, 26, 11 ) ;
#73 = DIRECTION ( 'NONE',  ( 3.491481338843133355E-15, 4.873663999492035962E-16, 1.000000000000000000 ) ) ;
#74 = ADVANCED_FACE ( 'NONE', ( #4, #234 ), #229, .T. ) ;
#75 = COORDINATED_UNIVERSAL_TIME_OFFSET ( 1, 0, .AHEAD. ) ;
#76 = VERTEX_POINT ( 'NONE', #136 ) ;
#77 = PERSON_AND_ORGANIZATION_ROLE ( 'creator' ) ;
#78 = EDGE_LOOP ( 'NONE', ( #152 ) ) ;
#79 = CLOSED_SHELL ( 'NONE', ( #97, #217, #3, #69, #108 ) ) ;
#80 = LOCAL_TIME ( 11, 3, 9.000000000000000000, #116 ) ;
#81 = CC_DESIGN_DATE_AND_TIME_ASSIGNMENT ( #224, #58, ( #155 ) ) ;
#82 = ORIENTED_EDGE ( 'NONE', *, *, #83, .T. ) ;
#83 = EDGE_CURVE ( 'NONE', #111, #111, #25, .T. ) ;
#84 = LOCAL_TIME ( 11, 3, 9.000000000000000000, #225 ) ;
#85 = CARTESIAN_POINT ( 'NONE',  ( 3.612663870764530368E-30, 5.042819405428788434E-31, 1.034708056598563870E-15 ) ) ;
#86 = AXIS2_PLACEMENT_3D ( 'NONE', #163, #22, #88 ) ;
#87 = DIRECTION ( 'NONE',  ( 3.153425691349006731E-31, 1.000000000000000000, 9.031770143711729009E-17 ) ) ;
#88 = DIRECTION ( 'NONE',  ( 0.0000000000000000000, 1.000000000000000000, 0.0000000000000000000 ) ) ;
#89 = DATE_AND_TIME ( #72, #99 ) ;
#90 = DIRECTION ( 'NONE',  ( -1.718119321670857666E-30, 1.000000000000000000, -4.836075960534327462E-16 ) ) ;
#91 = APPROVAL_PERSON_ORGANIZATION ( #9, #31, #93 ) ;
#92 = ORIENTED_EDGE ( 'NONE', *, *, #83, .F. ) ;
#93 = APPROVAL_ROLE ( '' ) ;
#94 = VERTEX_POINT ( 'NONE', #171 ) ;
#95 = CARTESIAN_POINT ( 'NONE',  ( 4.671152483187138210E-14, 2.353999999999998316, 13.37871244282484717 ) ) ;
#96 = APPROVAL_ROLE ( '' ) ;
#97 = ADVANCED_FACE ( 'NONE', ( #134 ), #166, .T. ) ;
#98 = PERSON_AND_ORGANIZATION ( #193, #64 ) ;
#99 = LOCAL_TIME ( 11, 3, 9.000000000000000000, #39 ) ;
#100 = DIRECTION ( 'NONE',  ( -3.491481338843133355E-15, -4.873663999492035962E-16, -1.000000000000000000 ) ) ;
#101 = PRODUCT ( '321374', '321374', '', ( #191 ) ) ;
#102 = PERSON_AND_ORGANIZATION ( #193, #64 ) ;
#103 = CYLINDRICAL_SURFACE ( 'NONE', #170, 1.999999999999993561 ) ;
#104 = DIRECTION ( 'NONE',  ( -3.491481338843133355E-15, 9.031770143711729009E-17, -1.000000000000000000 ) ) ;
#105 = PERSON_AND_ORGANIZATION_ROLE ( 'creator' ) ;
#106 = LOCAL_TIME ( 11, 3, 9.000000000000000000, #75 ) ;
#107 = DIRECTION ( 'NONE',  ( -3.491481338843133355E-15, 9.031770143711729009E-17, -1.000000000000000000 ) ) ;
#108 = ADVANCED_FACE ( 'NONE', ( #139 ), #21, .T. ) ;
#109 = DIRECTION ( 'NONE',  ( -3.491481338843133355E-15, 9.031770143711729009E-17, -1.000000000000000000 ) ) ;
#110 = CARTESIAN_POINT ( 'NONE',  ( 3.612663870764530368E-30, 5.042819405428788434E-31, 1.034708056598563870E-15 ) ) ;
#111 = VERTEX_POINT ( 'NONE', #71 ) ;
#112 = CARTESIAN_POINT ( 'NONE',  ( 4.885231259955590439E-14, -1.263712492114123682E-15, 13.99185842870425134 ) ) ;
#113 = APPROVAL_DATE_TIME ( #236, #19 ) ;
#114 = VERTEX_POINT ( 'NONE', #220 ) ;
#115 = APPLICATION_CONTEXT ( 'configuration controlled 3d designs of mechanical parts and assemblies' ) ;
#116 = COORDINATED_UNIVERSAL_TIME_OFFSET ( 1, 0, .AHEAD. ) ;
#117 = AXIS2_PLACEMENT_3D ( 'NONE', #35, #16, #209 ) ;
#118 = CC_DESIGN_APPROVAL ( #19, ( #131 ) ) ;
#119 = CARTESIAN_POINT ( 'NONE',  ( 4.671152483187138210E-14, 6.520334919215160600E-15, 13.37871244282484717 ) ) ;
#120 = CONICAL_SURFACE ( 'NONE', #178, 2.353999999999999648, 0.5235987755982928205 ) ;
#121 = CARTESIAN_POINT ( 'NONE',  ( 4.671152483187138210E-14, -1.208334556024100827E-15, 13.37871244282484717 ) ) ;
#122 = UNCERTAINTY_MEASURE_WITH_UNIT (LENGTH_MEASURE( 1.000000000000000082E-05 ), #50, 'distance_accuracy_value', 'NONE');
#123 = AXIS2_PLACEMENT_3D ( 'NONE', #239, #107, #187 ) ;
#124 = CC_DESIGN_PERSON_AND_ORGANIZATION_ASSIGNMENT ( #102, #77, ( #216 ) ) ;
#125 = FACE_OUTER_BOUND ( 'NONE', #70, .T. ) ;
#126 = DIRECTION ( 'NONE',  ( -3.491481338843133355E-15, 9.031770143711729009E-17, -1.000000000000000000 ) ) ;
#127 = PLANE ( 'NONE',  #26 ) ;
#128 = CALENDAR_DATE ( 2021, 26, 11 ) ;
#129 = CARTESIAN_POINT ( 'NONE',  ( 0.0000000000000000000, 0.0000000000000000000, 0.0000000000000000000 ) ) ;
#130 = ORIENTED_EDGE ( 'NONE', *, *, #41, .F. ) ;
#131 = PRODUCT_DEFINITION ( 'UNKNOWN', '', #216, #215 ) ;
#132 = PERSON_AND_ORGANIZATION ( #193, #64 ) ;
#133 = VERTEX_POINT ( 'NONE', #233 ) ;
#134 = FACE_OUTER_BOUND ( 'NONE', #142, .T. ) ;
#135 = DATE_TIME_ROLE ( 'creation_date' ) ;
#136 = CARTESIAN_POINT ( 'NONE',  ( 4.671152483187138210E-14, 2.353999999999998316, 13.37871244282484717 ) ) ;
#137 = CARTESIAN_POINT ( 'NONE',  ( -1.806331935382265184E-30, 2.123059892324148379, -5.173540282992819352E-16 ) ) ;
#138 = EDGE_LOOP ( 'NONE', ( #82 ) ) ;
#139 = FACE_OUTER_BOUND ( 'NONE', #28, .T. ) ;
#140 = MANIFOLD_SOLID_BREP ( 'Corps-Déplacer/Copier1[1]', #79 ) ;
#141 = EDGE_LOOP ( 'NONE', ( #130 ) ) ;
#142 = EDGE_LOOP ( 'NONE', ( #182 ) ) ;
#143 = AXIS2_PLACEMENT_3D ( 'NONE', #34, #100, #242 ) ;
#144 = LOCAL_TIME ( 11, 3, 9.000000000000000000, #165 ) ;
#145 = CYLINDRICAL_SURFACE ( 'NONE', #213, 2.353999999999994763 ) ;
#146 = DIRECTION ( 'NONE',  ( 1.701630690601803054E-30, -1.000000000000000000, 4.873663999492034976E-16 ) ) ;
#147 = SECURITY_CLASSIFICATION_LEVEL ( 'unclassified' ) ;
#148 = PRODUCT_RELATED_PRODUCT_CATEGORY ( 'detail', '', ( #101 ) ) ;
#149 = CALENDAR_DATE ( 2021, 26, 11 ) ;
#150 = VERTEX_POINT ( 'NONE', #218 ) ;
#151 = DIRECTION ( 'NONE',  ( -3.491481338843133355E-15, 9.031770143711729009E-17, -1.000000000000000000 ) ) ;
#152 = ORIENTED_EDGE ( 'NONE', *, *, #240, .T. ) ;
#153 = CARTESIAN_POINT ( 'NONE',  ( 4.671152483187138210E-14, 2.353999999999998316, 13.37871244282484717 ) ) ;
#154 = AXIS2_PLACEMENT_3D ( 'NONE', #197, #57, #90 ) ;
#155 = SECURITY_CLASSIFICATION ( '', '', #147 ) ;
#156 = DIRECTION ( 'NONE',  ( 0.0000000000000000000, 1.000000000000000000, 0.0000000000000000000 ) ) ;
#157 = ADVANCED_FACE ( 'NONE', ( #231, #68 ), #145, .T. ) ;
#158 = DIRECTION ( 'NONE',  ( 3.491481338843133355E-15, 4.873663999492035962E-16, 1.000000000000000000 ) ) ;
#159 = ORIENTED_EDGE ( 'NONE', *, *, #243, .T. ) ;
#160 = CIRCLE ( 'NONE', #123, 1.599999999999994982 ) ;
#161 = ADVANCED_FACE ( 'NONE', ( #51 ), #127, .T. ) ;
#162 = CARTESIAN_POINT ( 'NONE',  ( 2.779219145719134403E-13, -7.189289034394536528E-15, 79.60000000000000853 ) ) ;
#163 = CARTESIAN_POINT ( 'NONE',  ( 2.779219145719134403E-13, -7.189289034394536528E-15, 79.60000000000000853 ) ) ;
#164 = DIRECTION ( 'NONE',  ( -1.701630690601803755E-30, 1.000000000000000000, -4.873663999492036948E-16 ) ) ;
#165 = COORDINATED_UNIVERSAL_TIME_OFFSET ( 1, 0, .AHEAD. ) ;
#166 = PLANE ( 'NONE',  #117 ) ;
#167 = DATE_AND_TIME ( #200, #144 ) ;
#168 = CC_DESIGN_PERSON_AND_ORGANIZATION_ASSIGNMENT ( #186, #55, ( #101 ) ) ;
#169 = DIRECTION ( 'NONE',  ( 0.0000000000000000000, 1.000000000000000000, 0.0000000000000000000 ) ) ;
#170 = AXIS2_PLACEMENT_3D ( 'NONE', #48, #210, #223 ) ;
#171 = CARTESIAN_POINT ( 'NONE',  ( 2.779219145719134403E-13, 1.999999999999988010, 79.60000000000000853 ) ) ;
#172 = SHAPE_DEFINITION_REPRESENTATION ( #176, #61 ) ;
#173 = EDGE_CURVE ( 'NONE', #133, #133, #30, .T. ) ;
#174 = AXIS2_PLACEMENT_3D ( 'NONE', #121, #104, #156 ) ;
#175 = FACE_OUTER_BOUND ( 'NONE', #45, .T. ) ;
#176 = PRODUCT_DEFINITION_SHAPE ( 'NONE', 'NONE',  #131 ) ;
#177 = EDGE_LOOP ( 'NONE', ( #62 ) ) ;
#178 = AXIS2_PLACEMENT_3D ( 'NONE', #32, #181, #169 ) ;
#179 = FACE_OUTER_BOUND ( 'NONE', #17, .T. ) ;
#180 = ORIENTED_EDGE ( 'NONE', *, *, #198, .F. ) ;
#181 = DIRECTION ( 'NONE',  ( -3.491481338843133355E-15, 9.031770143711729009E-17, -1.000000000000000000 ) ) ;
#182 = ORIENTED_EDGE ( 'NONE', *, *, #243, .F. ) ;
#183 = PERSON_AND_ORGANIZATION_ROLE ( 'design_supplier' ) ;
#184 = CC_DESIGN_SECURITY_CLASSIFICATION ( #155, ( #216 ) ) ;
#185 = APPROVAL_PERSON_ORGANIZATION ( #132, #207, #96 ) ;
#186 = PERSON_AND_ORGANIZATION ( #193, #64 ) ;
#187 = DIRECTION ( 'NONE',  ( 0.0000000000000000000, 1.000000000000000000, 0.0000000000000000000 ) ) ;
#188 = DIRECTION ( 'NONE',  ( 0.0000000000000000000, 1.000000000000000000, 0.0000000000000000000 ) ) ;
#189 = APPLICATION_PROTOCOL_DEFINITION ( 'international standard', 'config_control_design', 1994, #115 ) ;
#190 = APPROVAL_DATE_TIME ( #167, #31 ) ;
#191 = MECHANICAL_CONTEXT ( 'NONE', #44, 'mechanical' ) ;
#192 = APPROVAL_PERSON_ORGANIZATION ( #205, #19, #221 ) ;
#193 = PERSON ( 'UNSPECIFIED', 'UNSPECIFIED', 'UNSPECIFIED', ('UNSPECIFIED'), ('UNSPECIFIED'), ('UNSPECIFIED') ) ;
#194 = AXIS2_PLACEMENT_3D ( 'NONE', #129, #1, #20 ) ;
#195 = EDGE_LOOP ( 'NONE', ( #18 ) ) ;
#196 = FACE_OUTER_BOUND ( 'NONE', #141, .T. ) ;
#197 = CARTESIAN_POINT ( 'NONE',  ( 1.396592535537256892E-15, 1.949465599796819710E-16, 0.4000000000000010214 ) ) ;
#198 = EDGE_CURVE ( 'NONE', #114, #114, #42, .T. ) ;
#199 = CALENDAR_DATE ( 2021, 26, 11 ) ;
#200 = CALENDAR_DATE ( 2021, 26, 11 ) ;
#201 = DIRECTION ( 'NONE',  ( -3.491481338843133355E-15, -4.873663999492035962E-16, -1.000000000000000000 ) ) ;
#202 = APPROVAL_STATUS ( 'not_yet_approved' ) ;
#203 = APPROVAL_STATUS ( 'not_yet_approved' ) ;
#204 =( NAMED_UNIT ( * ) SI_UNIT ( $, .STERADIAN. ) SOLID_ANGLE_UNIT ( ) );
#205 = PERSON_AND_ORGANIZATION ( #193, #64 ) ;
#206 = CIRCLE ( 'NONE', #38, 1.999999999999995337 ) ;
#207 = APPROVAL ( #202, 'UNSPECIFIED' ) ;
#208 = EDGE_LOOP ( 'NONE', ( #92 ) ) ;
#209 = DIRECTION ( 'NONE',  ( -3.153425691349006731E-31, -1.000000000000000000, -9.031770143711729009E-17 ) ) ;
#210 = DIRECTION ( 'NONE',  ( -3.491481338843133355E-15, 9.031770143711729009E-17, -1.000000000000000000 ) ) ;
#211 = EDGE_LOOP ( 'NONE', ( #180 ) ) ;
#212 = CIRCLE ( 'NONE', #143, 2.353999999999992099 ) ;
#213 = AXIS2_PLACEMENT_3D ( 'NONE', #5, #219, #164 ) ;
#214 = ORIENTED_EDGE ( 'NONE', *, *, #173, .F. ) ;
#215 = DESIGN_CONTEXT ( 'detailed design', #115, 'design' ) ;
#216 = PRODUCT_DEFINITION_FORMATION_WITH_SPECIFIED_SOURCE ( 'ANY', '', #101, .NOT_KNOWN. ) ;
#217 = ADVANCED_FACE ( 'NONE', ( #47, #179 ), #227, .T. ) ;
#218 = CARTESIAN_POINT ( 'NONE',  ( 2.793185071074506684E-13, 1.599999999999987876, 80.00000000000000000 ) ) ;
#219 = DIRECTION ( 'NONE',  ( -3.491481338843133355E-15, -4.873663999492035962E-16, -1.000000000000000000 ) ) ;
#220 = CARTESIAN_POINT ( 'NONE',  ( 0.0000000000000000000, 2.123059892324148379, 0.0000000000000000000 ) ) ;
#221 = APPROVAL_ROLE ( '' ) ;
#222 = CIRCLE ( 'NONE', #174, 2.353999999999999648 ) ;
#223 = DIRECTION ( 'NONE',  ( 3.153425691349006731E-31, 1.000000000000000000, 9.031770143711729009E-17 ) ) ;
#224 = DATE_AND_TIME ( #149, #106 ) ;
#225 = COORDINATED_UNIVERSAL_TIME_OFFSET ( 1, 0, .AHEAD. ) ;
#226 = ORIENTED_EDGE ( 'NONE', *, *, #24, .F. ) ;
#227 = CONICAL_SURFACE ( 'NONE', #86, 1.999999999999995337, 0.7853981633974516097 ) ;
#228 = CC_DESIGN_PERSON_AND_ORGANIZATION_ASSIGNMENT ( #11, #105, ( #131 ) ) ;
#229 = CONICAL_SURFACE ( 'NONE', #14, 2.123059892324148379, 0.5235987755982979275 ) ;
#230 = FACE_OUTER_BOUND ( 'NONE', #78, .T. ) ;
#231 = FACE_OUTER_BOUND ( 'NONE', #195, .T. ) ;
#232 = AXIS2_PLACEMENT_3D ( 'NONE', #85, #23, #40 ) ;
#233 = CARTESIAN_POINT ( 'NONE',  ( 4.885231259955590439E-14, 1.999999999999990452, 13.99185842870425134 ) ) ;
#234 = FACE_BOUND ( 'NONE', #211, .T. ) ;
#235 = CC_DESIGN_PERSON_AND_ORGANIZATION_ASSIGNMENT ( #12, #183, ( #216 ) ) ;
#236 = DATE_AND_TIME ( #199, #80 ) ;
#237 = APPROVAL_DATE_TIME ( #33, #207 ) ;
#238 = EDGE_LOOP ( 'NONE', ( #59 ) ) ;
#239 = CARTESIAN_POINT ( 'NONE',  ( 2.793185071074506684E-13, -7.225416114969383207E-15, 80.00000000000000000 ) ) ;
#240 = EDGE_CURVE ( 'NONE', #94, #94, #206, .T. ) ;
#241 = CC_DESIGN_APPROVAL ( #207, ( #216 ) ) ;
#242 = DIRECTION ( 'NONE',  ( -2.618086585403218088E-30, 1.000000000000000000, -7.369258606528517021E-16 ) ) ;
#243 = EDGE_CURVE ( 'NONE', #150, #150, #160, .T. ) ;
ENDSEC;
END-ISO-10303-21;
