ISO-10303-21;
HEADER;
FILE_DESCRIPTION (( 'STEP AP203' ),
    '1' );
FILE_NAME ('321373.step',
    '2021-11-26T10:03:08',
    ( '' ),
    ( '' ),
    'SwSTEP 2.0',
    'SolidWorks 2019',
    '' );
FILE_SCHEMA (( 'CONFIG_CONTROL_DESIGN' ));
ENDSEC;

DATA;
#1 = EDGE_CURVE ( 'NONE', #61, #61, #157, .T. ) ;
#2 = ORIENTED_EDGE ( 'NONE', *, *, #163, .F. ) ;
#3 = DATE_TIME_ROLE ( 'classification_date' ) ;
#4 = AXIS2_PLACEMENT_3D ( 'NONE', #109, #100, #114 ) ;
#5 = CC_DESIGN_PERSON_AND_ORGANIZATION_ASSIGNMENT ( #176, #121, ( #228 ) ) ;
#6 = CARTESIAN_POINT ( 'NONE',  ( 4.674176194723415715E-14, -1.209116730262660123E-15, 13.38737269686269116 ) ) ;
#7 = FACE_OUTER_BOUND ( 'NONE', #137, .T. ) ;
#8 = CONICAL_SURFACE ( 'NONE', #125, 1.999999999999995337, 0.7853981633974516097 ) ;
#9 = CARTESIAN_POINT ( 'NONE',  ( 4.885231259955590439E-14, -1.263712492114123682E-15, 13.99185842870425134 ) ) ;
#10 =( NAMED_UNIT ( * ) PLANE_ANGLE_UNIT ( ) SI_UNIT ( $, .RADIAN. ) );
#11 = CIRCLE ( 'NONE', #146, 1.599999999999994982 ) ;
#12 = CARTESIAN_POINT ( 'NONE',  ( -6.842277657836020854E-46, 2.118059892324149374, 0.0000000000000000000 ) ) ;
#13 = PERSON_AND_ORGANIZATION ( #188, #62 ) ;
#14 = DIRECTION ( 'NONE',  ( -3.491481338843133355E-15, 9.031770143711729009E-17, -1.000000000000000000 ) ) ;
#15 = APPLICATION_CONTEXT ( 'configuration controlled 3d designs of mechanical parts and assemblies' ) ;
#16 = FACE_OUTER_BOUND ( 'NONE', #123, .T. ) ;
#17 = DIRECTION ( 'NONE',  ( -3.491481338843133355E-15, 9.031770143711729009E-17, -1.000000000000000000 ) ) ;
#18 = AXIS2_PLACEMENT_3D ( 'NONE', #142, #122, #161 ) ;
#19 = DATE_AND_TIME ( #40, #216 ) ;
#20 = CALENDAR_DATE ( 2021, 26, 11 ) ;
#21 = EDGE_LOOP ( 'NONE', ( #131 ) ) ;
#22 = ADVANCED_BREP_SHAPE_REPRESENTATION ( '321373', ( #207, #218, #133 ), #185 ) ;
#23 = AXIS2_PLACEMENT_3D ( 'NONE', #194, #177, #203 ) ;
#24 = EDGE_LOOP ( 'NONE', ( #73 ) ) ;
#25 = CC_DESIGN_PERSON_AND_ORGANIZATION_ASSIGNMENT ( #193, #53, ( #228 ) ) ;
#26 = PERSON_AND_ORGANIZATION ( #188, #62 ) ;
#27 = CARTESIAN_POINT ( 'NONE',  ( -1.800326239189193169E-30, 2.118059892324149374, -5.156339285449862345E-16 ) ) ;
#28 = PERSON_AND_ORGANIZATION_ROLE ( 'design_owner' ) ;
#29 = PLANE ( 'NONE',  #230 ) ;
#30 = EDGE_CURVE ( 'NONE', #41, #41, #119, .T. ) ;
#31 = EDGE_LOOP ( 'NONE', ( #45 ) ) ;
#32 = APPROVAL ( #233, 'UNSPECIFIED' ) ;
#33 = FACE_OUTER_BOUND ( 'NONE', #63, .T. ) ;
#34 = DIRECTION ( 'NONE',  ( -1.699976705770764103E-30, 1.000000000000000000, -4.868926798657998900E-16 ) ) ;
#35 = CARTESIAN_POINT ( 'NONE',  ( 3.600652478378386339E-30, 5.021167705979974563E-31, 1.031267857089972469E-15 ) ) ;
#36 = DIRECTION ( 'NONE',  ( 3.153425691349006731E-31, 1.000000000000000000, 9.031770143711729009E-17 ) ) ;
#37 = CC_DESIGN_APPROVAL ( #124, ( #205 ) ) ;
#38 = CARTESIAN_POINT ( 'NONE',  ( 4.674176194723415715E-14, 2.348999999999998867, 13.38737269686269116 ) ) ;
#39 = PRODUCT_RELATED_PRODUCT_CATEGORY ( 'detail', '', ( #227 ) ) ;
#40 = CALENDAR_DATE ( 2021, 26, 11 ) ;
#41 = VERTEX_POINT ( 'NONE', #223 ) ;
#42 = AXIS2_PLACEMENT_3D ( 'NONE', #27, #89, #104 ) ;
#43 = EDGE_LOOP ( 'NONE', ( #64 ) ) ;
#44 = DATE_AND_TIME ( #52, #190 ) ;
#45 = ORIENTED_EDGE ( 'NONE', *, *, #30, .F. ) ;
#46 = AXIS2_PLACEMENT_3D ( 'NONE', #199, #107, #181 ) ;
#47 = AXIS2_PLACEMENT_3D ( 'NONE', #6, #105, #143 ) ;
#48 = CARTESIAN_POINT ( 'NONE',  ( 2.779219145719134403E-13, -7.189289034394536528E-15, 79.60000000000000853 ) ) ;
#49 = PERSON_AND_ORGANIZATION_ROLE ( 'creator' ) ;
#50 = CALENDAR_DATE ( 2021, 26, 11 ) ;
#51 = CYLINDRICAL_SURFACE ( 'NONE', #151, 2.348999999999995758 ) ;
#52 = CALENDAR_DATE ( 2021, 26, 11 ) ;
#53 = PERSON_AND_ORGANIZATION_ROLE ( 'creator' ) ;
#54 = CYLINDRICAL_SURFACE ( 'NONE', #75, 1.999999999999993561 ) ;
#55 = CIRCLE ( 'NONE', #4, 2.348999999999992205 ) ;
#56 = FACE_OUTER_BOUND ( 'NONE', #81, .T. ) ;
#57 = VERTEX_POINT ( 'NONE', #147 ) ;
#58 = CARTESIAN_POINT ( 'NONE',  ( 4.674176194723415083E-14, 6.518213768737715245E-15, 13.38737269686268938 ) ) ;
#59 =( NAMED_UNIT ( * ) SI_UNIT ( $, .STERADIAN. ) SOLID_ANGLE_UNIT ( ) );
#60 = ORIENTED_EDGE ( 'NONE', *, *, #30, .T. ) ;
#61 = VERTEX_POINT ( 'NONE', #38 ) ;
#62 = ORGANIZATION ( 'UNSPECIFIED', 'UNSPECIFIED', '' ) ;
#63 = EDGE_LOOP ( 'NONE', ( #149 ) ) ;
#64 = ORIENTED_EDGE ( 'NONE', *, *, #93, .T. ) ;
#65 = ORIENTED_EDGE ( 'NONE', *, *, #154, .T. ) ;
#66 = APPROVAL_DATE_TIME ( #19, #72 ) ;
#67 = AXIS2_PLACEMENT_3D ( 'NONE', #35, #204, #132 ) ;
#68 = CARTESIAN_POINT ( 'NONE',  ( 1.396592535537256892E-15, 1.947570719463204638E-16, 0.4000000000000010214 ) ) ;
#69 = PERSON_AND_ORGANIZATION ( #188, #62 ) ;
#70 = PLANE ( 'NONE',  #18 ) ;
#71 = CALENDAR_DATE ( 2021, 26, 11 ) ;
#72 = APPROVAL ( #127, 'UNSPECIFIED' ) ;
#73 = ORIENTED_EDGE ( 'NONE', *, *, #1, .T. ) ;
#74 = DIRECTION ( 'NONE',  ( -3.491481338843133355E-15, 9.031770143711729009E-17, -1.000000000000000000 ) ) ;
#75 = AXIS2_PLACEMENT_3D ( 'NONE', #128, #14, #148 ) ;
#76 = ADVANCED_FACE ( 'NONE', ( #117, #99 ), #51, .T. ) ;
#77 = CARTESIAN_POINT ( 'NONE',  ( 4.885231259955590439E-14, 1.999999999999990452, 13.99185842870425134 ) ) ;
#78 = ORIENTED_EDGE ( 'NONE', *, *, #163, .T. ) ;
#79 = LOCAL_TIME ( 11, 3, 8.000000000000000000, #102 ) ;
#80 = CC_DESIGN_PERSON_AND_ORGANIZATION_ASSIGNMENT ( #13, #49, ( #225 ) ) ;
#81 = EDGE_LOOP ( 'NONE', ( #60 ) ) ;
#82 = ADVANCED_FACE ( 'NONE', ( #95 ), #145, .T. ) ;
#83 = APPROVAL_PERSON_ORGANIZATION ( #231, #32, #118 ) ;
#84 = MECHANICAL_CONTEXT ( 'NONE', #98, 'mechanical' ) ;
#85 = APPROVAL_STATUS ( 'not_yet_approved' ) ;
#86 = FACE_OUTER_BOUND ( 'NONE', #173, .T. ) ;
#87 = CIRCLE ( 'NONE', #171, 1.999999999999991784 ) ;
#88 = DIRECTION ( 'NONE',  ( 1.000000000000000000, 0.0000000000000000000, 0.0000000000000000000 ) ) ;
#89 = DIRECTION ( 'NONE',  ( -3.491481338843133355E-15, -4.868926798657998900E-16, -1.000000000000000000 ) ) ;
#90 = CC_DESIGN_SECURITY_CLASSIFICATION ( #205, ( #228 ) ) ;
#91 = DIRECTION ( 'NONE',  ( -3.491481338843133355E-15, 9.031770143711729009E-17, -1.000000000000000000 ) ) ;
#92 = EDGE_LOOP ( 'NONE', ( #209 ) ) ;
#93 = EDGE_CURVE ( 'NONE', #110, #110, #55, .T. ) ;
#94 = APPROVAL_PERSON_ORGANIZATION ( #26, #72, #184 ) ;
#95 = FACE_OUTER_BOUND ( 'NONE', #24, .T. ) ;
#96 = VERTEX_POINT ( 'NONE', #77 ) ;
#97 = CC_DESIGN_DATE_AND_TIME_ASSIGNMENT ( #226, #134, ( #225 ) ) ;
#98 = APPLICATION_CONTEXT ( 'configuration controlled 3d designs of mechanical parts and assemblies' ) ;
#99 = FACE_OUTER_BOUND ( 'NONE', #31, .T. ) ;
#100 = DIRECTION ( 'NONE',  ( -3.491481338843133355E-15, -4.868926798657998900E-16, -1.000000000000000000 ) ) ;
#101 = PERSON_AND_ORGANIZATION ( #188, #62 ) ;
#102 = COORDINATED_UNIVERSAL_TIME_OFFSET ( 1, 0, .AHEAD. ) ;
#103 = PERSON_AND_ORGANIZATION ( #188, #62 ) ;
#104 = DIRECTION ( 'NONE',  ( -1.699976705770764103E-30, 1.000000000000000000, -4.868926798657998900E-16 ) ) ;
#105 = DIRECTION ( 'NONE',  ( -3.491481338843133355E-15, 9.031770143711729009E-17, -1.000000000000000000 ) ) ;
#106 = DIRECTION ( 'NONE',  ( 3.491481338843133355E-15, 4.868926798657998900E-16, 1.000000000000000000 ) ) ;
#107 = DIRECTION ( 'NONE',  ( -3.491481338843133355E-15, -4.868926798657998900E-16, -1.000000000000000000 ) ) ;
#108 = CC_DESIGN_APPROVAL ( #72, ( #225 ) ) ;
#109 = CARTESIAN_POINT ( 'NONE',  ( 4.674176194723416346E-14, 6.518213768737716823E-15, 13.38737269686269293 ) ) ;
#110 = VERTEX_POINT ( 'NONE', #111 ) ;
#111 = CARTESIAN_POINT ( 'NONE',  ( 4.674176194723415715E-14, 2.348999999999998867, 13.38737269686269116 ) ) ;
#112 = CARTESIAN_POINT ( 'NONE',  ( 2.793185071074506684E-13, 1.599999999999987876, 80.00000000000000000 ) ) ;
#113 = CC_DESIGN_APPROVAL ( #32, ( #228 ) ) ;
#114 = DIRECTION ( 'NONE',  ( -2.623659353784238072E-30, 1.000000000000000000, -7.384944555031131823E-16 ) ) ;
#115 = AXIS2_PLACEMENT_3D ( 'NONE', #68, #208, #229 ) ;
#116 = ADVANCED_FACE ( 'NONE', ( #152, #155 ), #8, .T. ) ;
#117 = FACE_OUTER_BOUND ( 'NONE', #43, .T. ) ;
#118 = APPROVAL_ROLE ( '' ) ;
#119 = CIRCLE ( 'NONE', #115, 2.348999999999999311 ) ;
#120 = APPLICATION_PROTOCOL_DEFINITION ( 'international standard', 'config_control_design', 1994, #98 ) ;
#121 = PERSON_AND_ORGANIZATION_ROLE ( 'design_supplier' ) ;
#122 = DIRECTION ( 'NONE',  ( 3.491481338843133355E-15, -9.031770143711729009E-17, 1.000000000000000000 ) ) ;
#123 = EDGE_LOOP ( 'NONE', ( #169 ) ) ;
#124 = APPROVAL ( #85, 'UNSPECIFIED' ) ;
#125 = AXIS2_PLACEMENT_3D ( 'NONE', #48, #164, #237 ) ;
#126 = FACE_BOUND ( 'NONE', #92, .T. ) ;
#127 = APPROVAL_STATUS ( 'not_yet_approved' ) ;
#128 = CARTESIAN_POINT ( 'NONE',  ( 0.0000000000000000000, 0.0000000000000000000, 0.0000000000000000000 ) ) ;
#129 = ORIENTED_EDGE ( 'NONE', *, *, #93, .F. ) ;
#130 = CONICAL_SURFACE ( 'NONE', #47, 2.348999999999999755, 0.5235987755982923764 ) ;
#131 = ORIENTED_EDGE ( 'NONE', *, *, #242, .F. ) ;
#132 = DIRECTION ( 'NONE',  ( 1.699976705770764453E-30, -1.000000000000000000, 4.868926798657997914E-16 ) ) ;
#133 = AXIS2_PLACEMENT_3D ( 'NONE', #182, #211, #88 ) ;
#134 = DATE_TIME_ROLE ( 'creation_date' ) ;
#135 = EDGE_LOOP ( 'NONE', ( #2 ) ) ;
#136 = EDGE_LOOP ( 'NONE', ( #221 ) ) ;
#137 = EDGE_LOOP ( 'NONE', ( #179 ) ) ;
#138 = AXIS2_PLACEMENT_3D ( 'NONE', #186, #17, #220 ) ;
#139 = APPROVAL_ROLE ( '' ) ;
#140 = DATE_AND_TIME ( #71, #79 ) ;
#141 = LOCAL_TIME ( 11, 3, 8.000000000000000000, #189 ) ;
#142 = CARTESIAN_POINT ( 'NONE',  ( 2.793185071074506684E-13, -7.225416114969383207E-15, 80.00000000000000000 ) ) ;
#143 = DIRECTION ( 'NONE',  ( 0.0000000000000000000, 1.000000000000000000, 0.0000000000000000000 ) ) ;
#144 = CC_DESIGN_PERSON_AND_ORGANIZATION_ASSIGNMENT ( #69, #28, ( #227 ) ) ;
#145 = PLANE ( 'NONE',  #236 ) ;
#146 = AXIS2_PLACEMENT_3D ( 'NONE', #197, #91, #195 ) ;
#147 = CARTESIAN_POINT ( 'NONE',  ( 2.779219145719134403E-13, 1.999999999999988010, 79.60000000000000853 ) ) ;
#148 = DIRECTION ( 'NONE',  ( 3.153425691349006731E-31, 1.000000000000000000, 9.031770143711729009E-17 ) ) ;
#149 = ORIENTED_EDGE ( 'NONE', *, *, #1, .F. ) ;
#150 = PLANE ( 'NONE',  #42 ) ;
#151 = AXIS2_PLACEMENT_3D ( 'NONE', #206, #217, #34 ) ;
#152 = FACE_BOUND ( 'NONE', #153, .T. ) ;
#153 = EDGE_LOOP ( 'NONE', ( #65 ) ) ;
#154 = EDGE_CURVE ( 'NONE', #224, #224, #11, .T. ) ;
#155 = FACE_OUTER_BOUND ( 'NONE', #21, .T. ) ;
#156 = EDGE_LOOP ( 'NONE', ( #78 ) ) ;
#157 = CIRCLE ( 'NONE', #23, 2.348999999999999755 ) ;
#158 = SHAPE_DEFINITION_REPRESENTATION ( #167, #22 ) ;
#159 = ADVANCED_FACE ( 'NONE', ( #178, #33 ), #130, .T. ) ;
#160 = CIRCLE ( 'NONE', #46, 2.118059892324149374 ) ;
#161 = DIRECTION ( 'NONE',  ( -3.153425691349006731E-31, -1.000000000000000000, -9.031770143711729009E-17 ) ) ;
#162 = DIRECTION ( 'NONE',  ( 0.0000000000000000000, 1.000000000000000000, 0.0000000000000000000 ) ) ;
#163 = EDGE_CURVE ( 'NONE', #96, #96, #87, .T. ) ;
#164 = DIRECTION ( 'NONE',  ( -3.491481338843133355E-15, 9.031770143711729009E-17, -1.000000000000000000 ) ) ;
#165 = CLOSED_SHELL ( 'NONE', ( #202, #116, #213, #159, #82 ) ) ;
#166 = DIRECTION ( 'NONE',  ( 1.699976705770764103E-30, -1.000000000000000000, 4.868926798657998900E-16 ) ) ;
#167 = PRODUCT_DEFINITION_SHAPE ( 'NONE', 'NONE',  #225 ) ;
#168 = CC_DESIGN_DATE_AND_TIME_ASSIGNMENT ( #44, #3, ( #205 ) ) ;
#169 = ORIENTED_EDGE ( 'NONE', *, *, #234, .T. ) ;
#170 = DIRECTION ( 'NONE',  ( -3.491481338843133355E-15, 9.031770143711729009E-17, -1.000000000000000000 ) ) ;
#171 = AXIS2_PLACEMENT_3D ( 'NONE', #9, #74, #162 ) ;
#172 = COORDINATED_UNIVERSAL_TIME_OFFSET ( 1, 0, .AHEAD. ) ;
#173 = EDGE_LOOP ( 'NONE', ( #129 ) ) ;
#174 = PERSON_AND_ORGANIZATION_ROLE ( 'classification_officer' ) ;
#175 = APPROVAL_DATE_TIME ( #192, #124 ) ;
#176 = PERSON_AND_ORGANIZATION ( #188, #62 ) ;
#177 = DIRECTION ( 'NONE',  ( -3.491481338843133355E-15, 9.031770143711729009E-17, -1.000000000000000000 ) ) ;
#178 = FACE_BOUND ( 'NONE', #156, .T. ) ;
#179 = ORIENTED_EDGE ( 'NONE', *, *, #242, .T. ) ;
#180 = CONICAL_SURFACE ( 'NONE', #67, 2.118059892324149374, 0.5235987755982979275 ) ;
#181 = DIRECTION ( 'NONE',  ( -1.699976705770764103E-30, 1.000000000000000000, -4.868926798657997914E-16 ) ) ;
#182 = CARTESIAN_POINT ( 'NONE',  ( 0.0000000000000000000, 0.0000000000000000000, 0.0000000000000000000 ) ) ;
#183 = ADVANCED_FACE ( 'NONE', ( #56, #126 ), #180, .T. ) ;
#184 = APPROVAL_ROLE ( '' ) ;
#185 =( GEOMETRIC_REPRESENTATION_CONTEXT ( 3 ) GLOBAL_UNCERTAINTY_ASSIGNED_CONTEXT ( ( #232 ) ) GLOBAL_UNIT_ASSIGNED_CONTEXT ( ( #238, #10, #59 ) ) REPRESENTATION_CONTEXT ( 'NONE', 'WORKASPACE' ) );
#186 = CARTESIAN_POINT ( 'NONE',  ( 2.779219145719134403E-13, -7.189289034394536528E-15, 79.60000000000000853 ) ) ;
#187 = CIRCLE ( 'NONE', #138, 1.999999999999995337 ) ;
#188 = PERSON ( 'UNSPECIFIED', 'UNSPECIFIED', 'UNSPECIFIED', ('UNSPECIFIED'), ('UNSPECIFIED'), ('UNSPECIFIED') ) ;
#189 = COORDINATED_UNIVERSAL_TIME_OFFSET ( 1, 0, .AHEAD. ) ;
#190 = LOCAL_TIME ( 11, 3, 8.000000000000000000, #172 ) ;
#191 = APPLICATION_PROTOCOL_DEFINITION ( 'international standard', 'config_control_design', 1994, #15 ) ;
#192 = DATE_AND_TIME ( #50, #212 ) ;
#193 = PERSON_AND_ORGANIZATION ( #188, #62 ) ;
#194 = CARTESIAN_POINT ( 'NONE',  ( 4.674176194723415715E-14, -1.209116730262660123E-15, 13.38737269686269116 ) ) ;
#195 = DIRECTION ( 'NONE',  ( 0.0000000000000000000, 1.000000000000000000, 0.0000000000000000000 ) ) ;
#196 = SECURITY_CLASSIFICATION_LEVEL ( 'unclassified' ) ;
#197 = CARTESIAN_POINT ( 'NONE',  ( 2.793185071074506684E-13, -7.225416114969383207E-15, 80.00000000000000000 ) ) ;
#198 = ADVANCED_FACE ( 'NONE', ( #16 ), #150, .T. ) ;
#199 = CARTESIAN_POINT ( 'NONE',  ( 3.600652478378386339E-30, 5.021167705979974563E-31, 1.031267857089972469E-15 ) ) ;
#200 = COORDINATED_UNIVERSAL_TIME_OFFSET ( 1, 0, .AHEAD. ) ;
#201 = CLOSED_SHELL ( 'NONE', ( #239, #76, #183, #198 ) ) ;
#202 = ADVANCED_FACE ( 'NONE', ( #235 ), #70, .T. ) ;
#203 = DIRECTION ( 'NONE',  ( 0.0000000000000000000, 1.000000000000000000, 0.0000000000000000000 ) ) ;
#204 = DIRECTION ( 'NONE',  ( 3.491481338843133355E-15, 4.868926798657998900E-16, 1.000000000000000000 ) ) ;
#205 = SECURITY_CLASSIFICATION ( '', '', #196 ) ;
#206 = CARTESIAN_POINT ( 'NONE',  ( 0.0000000000000000000, 0.0000000000000000000, 0.0000000000000000000 ) ) ;
#207 = MANIFOLD_SOLID_BREP ( 'Corps-Déplacer/Copier1[1]', #165 ) ;
#208 = DIRECTION ( 'NONE',  ( -3.491481338843133355E-15, -4.868926798657998900E-16, -1.000000000000000000 ) ) ;
#209 = ORIENTED_EDGE ( 'NONE', *, *, #234, .F. ) ;
#210 = COORDINATED_UNIVERSAL_TIME_OFFSET ( 1, 0, .AHEAD. ) ;
#211 = DIRECTION ( 'NONE',  ( 0.0000000000000000000, 0.0000000000000000000, 1.000000000000000000 ) ) ;
#212 = LOCAL_TIME ( 11, 3, 8.000000000000000000, #210 ) ;
#213 = ADVANCED_FACE ( 'NONE', ( #7, #215 ), #54, .T. ) ;
#214 = APPROVAL_DATE_TIME ( #140, #32 ) ;
#215 = FACE_OUTER_BOUND ( 'NONE', #135, .T. ) ;
#216 = LOCAL_TIME ( 11, 3, 8.000000000000000000, #200 ) ;
#217 = DIRECTION ( 'NONE',  ( -3.491481338843133355E-15, -4.868926798657998900E-16, -1.000000000000000000 ) ) ;
#218 = MANIFOLD_SOLID_BREP ( 'Corps-Déplacer/Copier1[2]', #201 ) ;
#219 = VERTEX_POINT ( 'NONE', #12 ) ;
#220 = DIRECTION ( 'NONE',  ( 0.0000000000000000000, 1.000000000000000000, 0.0000000000000000000 ) ) ;
#221 = ORIENTED_EDGE ( 'NONE', *, *, #154, .F. ) ;
#222 = CC_DESIGN_PERSON_AND_ORGANIZATION_ASSIGNMENT ( #103, #174, ( #205 ) ) ;
#223 = CARTESIAN_POINT ( 'NONE',  ( 1.396592535537252948E-15, 2.348999999999999311, 0.3999999999999999112 ) ) ;
#224 = VERTEX_POINT ( 'NONE', #112 ) ;
#225 = PRODUCT_DEFINITION ( 'UNKNOWN', '', #228, #243 ) ;
#226 = DATE_AND_TIME ( #20, #141 ) ;
#227 = PRODUCT ( '321373', '321373', '', ( #84 ) ) ;
#228 = PRODUCT_DEFINITION_FORMATION_WITH_SPECIFIED_SOURCE ( 'ANY', '', #227, .NOT_KNOWN. ) ;
#229 = DIRECTION ( 'NONE',  ( -1.721776450920901122E-30, 1.000000000000000000, -4.846369864239165868E-16 ) ) ;
#230 = AXIS2_PLACEMENT_3D ( 'NONE', #58, #106, #166 ) ;
#231 = PERSON_AND_ORGANIZATION ( #188, #62 ) ;
#232 = UNCERTAINTY_MEASURE_WITH_UNIT (LENGTH_MEASURE( 1.000000000000000082E-05 ), #238, 'distance_accuracy_value', 'NONE');
#233 = APPROVAL_STATUS ( 'not_yet_approved' ) ;
#234 = EDGE_CURVE ( 'NONE', #219, #219, #160, .T. ) ;
#235 = FACE_OUTER_BOUND ( 'NONE', #136, .T. ) ;
#236 = AXIS2_PLACEMENT_3D ( 'NONE', #241, #170, #36 ) ;
#237 = DIRECTION ( 'NONE',  ( 0.0000000000000000000, 1.000000000000000000, 0.0000000000000000000 ) ) ;
#238 =( LENGTH_UNIT ( ) NAMED_UNIT ( * ) SI_UNIT ( .MILLI., .METRE. ) );
#239 = ADVANCED_FACE ( 'NONE', ( #86 ), #29, .T. ) ;
#240 = APPROVAL_PERSON_ORGANIZATION ( #101, #124, #139 ) ;
#241 = CARTESIAN_POINT ( 'NONE',  ( 4.674176194723415083E-14, 2.348999999999998867, 13.38737269686268938 ) ) ;
#242 = EDGE_CURVE ( 'NONE', #57, #57, #187, .T. ) ;
#243 = DESIGN_CONTEXT ( 'detailed design', #15, 'design' ) ;
ENDSEC;
END-ISO-10303-21;
