ISO-10303-21;
HEADER;
FILE_DESCRIPTION (( 'STEP AP203' ),
    '1' );
FILE_NAME ('321372.step',
    '2021-11-26T10:03:07',
    ( '' ),
    ( '' ),
    'SwSTEP 2.0',
    'SolidWorks 2019',
    '' );
FILE_SCHEMA (( 'CONFIG_CONTROL_DESIGN' ));
ENDSEC;

DATA;
#1 = CC_DESIGN_PERSON_AND_ORGANIZATION_ASSIGNMENT ( #68, #209, ( #26 ) ) ;
#2 = DIRECTION ( 'NONE',  ( 0.0000000000000000000, 1.000000000000000000, 0.0000000000000000000 ) ) ;
#3 = CARTESIAN_POINT ( 'NONE',  ( 3.588662144688708664E-30, 4.999584233964482290E-31, 1.027833689031766231E-15 ) ) ;
#4 = AXIS2_PLACEMENT_3D ( 'NONE', #3, #191, #157 ) ;
#5 = APPROVAL_STATUS ( 'not_yet_approved' ) ;
#6 = CARTESIAN_POINT ( 'NONE',  ( -1.794331072344354332E-30, 2.113059892324147704, -5.139168445158831157E-16 ) ) ;
#7 = EDGE_LOOP ( 'NONE', ( #98 ) ) ;
#8 = AXIS2_PLACEMENT_3D ( 'NONE', #39, #18, #171 ) ;
#9 = APPROVAL_ROLE ( '' ) ;
#10 = ORIENTED_EDGE ( 'NONE', *, *, #90, .F. ) ;
#11 = PERSON_AND_ORGANIZATION ( #97, #13 ) ;
#12 = VERTEX_POINT ( 'NONE', #30 ) ;
#13 = ORGANIZATION ( 'UNSPECIFIED', 'UNSPECIFIED', '' ) ;
#14 = EDGE_LOOP ( 'NONE', ( #95 ) ) ;
#15 = SECURITY_CLASSIFICATION ( '', '', #215 ) ;
#16 = DIRECTION ( 'NONE',  ( -1.725449182258190753E-30, 1.000000000000000000, -4.856707683915446821E-16 ) ) ;
#17 = CC_DESIGN_APPROVAL ( #81, ( #37 ) ) ;
#18 = DIRECTION ( 'NONE',  ( 3.491481338843133355E-15, 4.864195722825704119E-16, 1.000000000000000000 ) ) ;
#19 = ADVANCED_FACE ( 'NONE', ( #217, #75 ), #143, .T. ) ;
#20 = CARTESIAN_POINT ( 'NONE',  ( 4.677199906259693850E-14, 2.343999999999998085, 13.39603295090053692 ) ) ;
#21 = APPLICATION_CONTEXT ( 'configuration controlled 3d designs of mechanical parts and assemblies' ) ;
#22 = CC_DESIGN_PERSON_AND_ORGANIZATION_ASSIGNMENT ( #241, #184, ( #37 ) ) ;
#23 = DIRECTION ( 'NONE',  ( 0.0000000000000000000, 1.000000000000000000, 0.0000000000000000000 ) ) ;
#24 = CC_DESIGN_DATE_AND_TIME_ASSIGNMENT ( #110, #186, ( #15 ) ) ;
#25 = VERTEX_POINT ( 'NONE', #105 ) ;
#26 = PRODUCT ( '321372', '321372', '', ( #119 ) ) ;
#27 = ORIENTED_EDGE ( 'NONE', *, *, #238, .T. ) ;
#28 = FACE_OUTER_BOUND ( 'NONE', #52, .T. ) ;
#29 = APPROVAL_ROLE ( '' ) ;
#30 = CARTESIAN_POINT ( 'NONE',  ( 4.885231259955590439E-14, 1.999999999999990452, 13.99185842870425134 ) ) ;
#31 = CC_DESIGN_PERSON_AND_ORGANIZATION_ASSIGNMENT ( #11, #195, ( #15 ) ) ;
#32 = FACE_OUTER_BOUND ( 'NONE', #126, .T. ) ;
#33 = PERSON_AND_ORGANIZATION ( #97, #13 ) ;
#34 = EDGE_LOOP ( 'NONE', ( #185 ) ) ;
#35 = ADVANCED_FACE ( 'NONE', ( #77, #145 ), #240, .T. ) ;
#36 = ORIENTED_EDGE ( 'NONE', *, *, #161, .F. ) ;
#37 = PRODUCT_DEFINITION_FORMATION_WITH_SPECIFIED_SOURCE ( 'ANY', '', #26, .NOT_KNOWN. ) ;
#38 = DIRECTION ( 'NONE',  ( -3.491481338843133355E-15, 9.031770143711729009E-17, -1.000000000000000000 ) ) ;
#39 = CARTESIAN_POINT ( 'NONE',  ( 4.677199906259694481E-14, 6.516092618260260423E-15, 13.39603295090053869 ) ) ;
#40 = AXIS2_PLACEMENT_3D ( 'NONE', #228, #117, #99 ) ;
#41 = PLANE ( 'NONE',  #221 ) ;
#42 = CARTESIAN_POINT ( 'NONE',  ( 0.0000000000000000000, 0.0000000000000000000, 0.0000000000000000000 ) ) ;
#43 = APPLICATION_PROTOCOL_DEFINITION ( 'international standard', 'config_control_design', 1994, #21 ) ;
#44 = DIRECTION ( 'NONE',  ( -3.491481338843133355E-15, 9.031770143711729009E-17, -1.000000000000000000 ) ) ;
#45 = CARTESIAN_POINT ( 'NONE',  ( 2.793185071074506684E-13, -7.225416114969383207E-15, 80.00000000000000000 ) ) ;
#46 = CIRCLE ( 'NONE', #131, 1.999999999999995337 ) ;
#47 = APPLICATION_PROTOCOL_DEFINITION ( 'international standard', 'config_control_design', 1994, #177 ) ;
#48 =( LENGTH_UNIT ( ) NAMED_UNIT ( * ) SI_UNIT ( .MILLI., .METRE. ) );
#49 = APPROVAL_DATE_TIME ( #212, #149 ) ;
#50 = LOCAL_TIME ( 11, 3, 7.000000000000000000, #237 ) ;
#51 = VERTEX_POINT ( 'NONE', #123 ) ;
#52 = EDGE_LOOP ( 'NONE', ( #10 ) ) ;
#53 = PERSON_AND_ORGANIZATION_ROLE ( 'creator' ) ;
#54 = ORIENTED_EDGE ( 'NONE', *, *, #70, .T. ) ;
#55 = CARTESIAN_POINT ( 'NONE',  ( 0.0000000000000000000, 0.0000000000000000000, 0.0000000000000000000 ) ) ;
#56 = MANIFOLD_SOLID_BREP ( 'Corps-Déplacer/Copier1[2]', #140 ) ;
#57 = FACE_OUTER_BOUND ( 'NONE', #14, .T. ) ;
#58 = EDGE_LOOP ( 'NONE', ( #124 ) ) ;
#59 = AXIS2_PLACEMENT_3D ( 'NONE', #137, #190, #160 ) ;
#60 = DATE_AND_TIME ( #165, #113 ) ;
#61 = ORIENTED_EDGE ( 'NONE', *, *, #192, .F. ) ;
#62 = FACE_OUTER_BOUND ( 'NONE', #135, .T. ) ;
#63 = DIRECTION ( 'NONE',  ( -3.491481338843133355E-15, -4.864195722825704119E-16, -1.000000000000000000 ) ) ;
#64 = APPROVAL_PERSON_ORGANIZATION ( #92, #149, #29 ) ;
#65 = FACE_OUTER_BOUND ( 'NONE', #223, .T. ) ;
#66 = CIRCLE ( 'NONE', #101, 1.999999999999991784 ) ;
#67 = CC_DESIGN_DATE_AND_TIME_ASSIGNMENT ( #60, #72, ( #103 ) ) ;
#68 = PERSON_AND_ORGANIZATION ( #97, #13 ) ;
#69 = AXIS2_PLACEMENT_3D ( 'NONE', #82, #63, #16 ) ;
#70 = EDGE_CURVE ( 'NONE', #25, #25, #169, .T. ) ;
#71 = DIRECTION ( 'NONE',  ( -3.491481338843133355E-15, 9.031770143711729009E-17, -1.000000000000000000 ) ) ;
#72 = DATE_TIME_ROLE ( 'creation_date' ) ;
#73 = DIRECTION ( 'NONE',  ( -1.698324859472653317E-30, 1.000000000000000000, -4.864195722825704119E-16 ) ) ;
#74 = CC_DESIGN_PERSON_AND_ORGANIZATION_ASSIGNMENT ( #33, #80, ( #37 ) ) ;
#75 = FACE_OUTER_BOUND ( 'NONE', #7, .T. ) ;
#76 = CALENDAR_DATE ( 2021, 26, 11 ) ;
#77 = FACE_BOUND ( 'NONE', #34, .T. ) ;
#78 = DIRECTION ( 'NONE',  ( 0.0000000000000000000, 1.000000000000000000, 0.0000000000000000000 ) ) ;
#79 = COORDINATED_UNIVERSAL_TIME_OFFSET ( 1, 0, .AHEAD. ) ;
#80 = PERSON_AND_ORGANIZATION_ROLE ( 'creator' ) ;
#81 = APPROVAL ( #142, 'UNSPECIFIED' ) ;
#82 = CARTESIAN_POINT ( 'NONE',  ( 1.396592535537256892E-15, 1.945678289130286775E-16, 0.4000000000000010214 ) ) ;
#83 = CONICAL_SURFACE ( 'NONE', #4, 2.113059892324147704, 0.5235987755982979275 ) ;
#84 = APPROVAL ( #102, 'UNSPECIFIED' ) ;
#85 = VERTEX_POINT ( 'NONE', #231 ) ;
#86 = DIRECTION ( 'NONE',  ( 1.000000000000000000, 0.0000000000000000000, 0.0000000000000000000 ) ) ;
#87 = AXIS2_PLACEMENT_3D ( 'NONE', #91, #242, #168 ) ;
#88 = FACE_OUTER_BOUND ( 'NONE', #114, .T. ) ;
#89 = CARTESIAN_POINT ( 'NONE',  ( 2.779219145719134403E-13, -7.189289034394536528E-15, 79.60000000000000853 ) ) ;
#90 = EDGE_CURVE ( 'NONE', #51, #51, #234, .T. ) ;
#91 = CARTESIAN_POINT ( 'NONE',  ( 4.677199906259693850E-14, -1.209898904501220011E-15, 13.39603295090053692 ) ) ;
#92 = PERSON_AND_ORGANIZATION ( #97, #13 ) ;
#93 = CALENDAR_DATE ( 2021, 26, 11 ) ;
#94 = LOCAL_TIME ( 11, 3, 7.000000000000000000, #139 ) ;
#95 = ORIENTED_EDGE ( 'NONE', *, *, #161, .T. ) ;
#96 = CIRCLE ( 'NONE', #40, 1.599999999999994982 ) ;
#97 = PERSON ( 'UNSPECIFIED', 'UNSPECIFIED', 'UNSPECIFIED', ('UNSPECIFIED'), ('UNSPECIFIED'), ('UNSPECIFIED') ) ;
#98 = ORIENTED_EDGE ( 'NONE', *, *, #70, .F. ) ;
#99 = DIRECTION ( 'NONE',  ( 0.0000000000000000000, 1.000000000000000000, 0.0000000000000000000 ) ) ;
#100 = DIRECTION ( 'NONE',  ( -3.491481338843133355E-15, 9.031770143711729009E-17, -1.000000000000000000 ) ) ;
#101 = AXIS2_PLACEMENT_3D ( 'NONE', #120, #71, #235 ) ;
#102 = APPROVAL_STATUS ( 'not_yet_approved' ) ;
#103 = PRODUCT_DEFINITION ( 'UNKNOWN', '', #37, #136 ) ;
#104 = CARTESIAN_POINT ( 'NONE',  ( 0.0000000000000000000, 2.113059892324147704, 0.0000000000000000000 ) ) ;
#105 = CARTESIAN_POINT ( 'NONE',  ( 1.396592535537252948E-15, 2.343999999999997641, 0.3999999999999999112 ) ) ;
#106 = CALENDAR_DATE ( 2021, 26, 11 ) ;
#107 = EDGE_LOOP ( 'NONE', ( #61 ) ) ;
#108 = PLANE ( 'NONE',  #208 ) ;
#109 = EDGE_LOOP ( 'NONE', ( #27 ) ) ;
#110 = DATE_AND_TIME ( #93, #183 ) ;
#111 = ORIENTED_EDGE ( 'NONE', *, *, #199, .F. ) ;
#112 = UNCERTAINTY_MEASURE_WITH_UNIT (LENGTH_MEASURE( 1.000000000000000082E-05 ), #48, 'distance_accuracy_value', 'NONE');
#113 = LOCAL_TIME ( 11, 3, 7.000000000000000000, #79 ) ;
#114 = EDGE_LOOP ( 'NONE', ( #54 ) ) ;
#115 = DIRECTION ( 'NONE',  ( 3.153425691349006731E-31, 1.000000000000000000, 9.031770143711729009E-17 ) ) ;
#116 = ADVANCED_FACE ( 'NONE', ( #57, #62 ), #219, .T. ) ;
#117 = DIRECTION ( 'NONE',  ( -3.491481338843133355E-15, 9.031770143711729009E-17, -1.000000000000000000 ) ) ;
#118 = AXIS2_PLACEMENT_3D ( 'NONE', #129, #133, #151 ) ;
#119 = MECHANICAL_CONTEXT ( 'NONE', #177, 'mechanical' ) ;
#120 = CARTESIAN_POINT ( 'NONE',  ( 4.885231259955590439E-14, -1.263712492114123682E-15, 13.99185842870425134 ) ) ;
#121 = AXIS2_PLACEMENT_3D ( 'NONE', #42, #158, #86 ) ;
#122 = DATE_AND_TIME ( #76, #50 ) ;
#123 = CARTESIAN_POINT ( 'NONE',  ( 4.677199906259693850E-14, 2.343999999999998085, 13.39603295090053692 ) ) ;
#124 = ORIENTED_EDGE ( 'NONE', *, *, #192, .T. ) ;
#125 = PERSON_AND_ORGANIZATION ( #97, #13 ) ;
#126 = EDGE_LOOP ( 'NONE', ( #182 ) ) ;
#127 = ORIENTED_EDGE ( 'NONE', *, *, #181, .T. ) ;
#128 = DATE_AND_TIME ( #106, #94 ) ;
#129 = CARTESIAN_POINT ( 'NONE',  ( 0.0000000000000000000, 0.0000000000000000000, 0.0000000000000000000 ) ) ;
#130 = CARTESIAN_POINT ( 'NONE',  ( 2.779219145719134403E-13, 1.999999999999988010, 79.60000000000000853 ) ) ;
#131 = AXIS2_PLACEMENT_3D ( 'NONE', #89, #176, #23 ) ;
#132 = MANIFOLD_SOLID_BREP ( 'Corps-Déplacer/Copier1[1]', #188 ) ;
#133 = DIRECTION ( 'NONE',  ( -3.491481338843133355E-15, 9.031770143711729009E-17, -1.000000000000000000 ) ) ;
#134 = FACE_OUTER_BOUND ( 'NONE', #107, .T. ) ;
#135 = EDGE_LOOP ( 'NONE', ( #167 ) ) ;
#136 = DESIGN_CONTEXT ( 'detailed design', #21, 'design' ) ;
#137 = CARTESIAN_POINT ( 'NONE',  ( 3.588662144688708664E-30, 4.999584233964482290E-31, 1.027833689031766231E-15 ) ) ;
#138 = FACE_BOUND ( 'NONE', #224, .T. ) ;
#139 = COORDINATED_UNIVERSAL_TIME_OFFSET ( 1, 0, .AHEAD. ) ;
#140 = CLOSED_SHELL ( 'NONE', ( #153, #19, #243, #230 ) ) ;
#141 = CC_DESIGN_APPROVAL ( #149, ( #15 ) ) ;
#142 = APPROVAL_STATUS ( 'not_yet_approved' ) ;
#143 = CYLINDRICAL_SURFACE ( 'NONE', #227, 2.343999999999994532 ) ;
#144 = APPROVAL_DATE_TIME ( #128, #81 ) ;
#145 = FACE_OUTER_BOUND ( 'NONE', #218, .T. ) ;
#146 = CARTESIAN_POINT ( 'NONE',  ( 4.677199906259693850E-14, -1.209898904501220011E-15, 13.39603295090053692 ) ) ;
#147 = VERTEX_POINT ( 'NONE', #20 ) ;
#148 = FACE_OUTER_BOUND ( 'NONE', #109, .T. ) ;
#149 = APPROVAL ( #5, 'UNSPECIFIED' ) ;
#150 = CARTESIAN_POINT ( 'NONE',  ( 4.677199906259694481E-14, 2.343999999999998085, 13.39603295090053869 ) ) ;
#151 = DIRECTION ( 'NONE',  ( 3.153425691349006731E-31, 1.000000000000000000, 9.031770143711729009E-17 ) ) ;
#152 = APPROVAL_PERSON_ORGANIZATION ( #173, #84, #179 ) ;
#153 = ADVANCED_FACE ( 'NONE', ( #134 ), #207, .T. ) ;
#154 = AXIS2_PLACEMENT_3D ( 'NONE', #45, #203, #216 ) ;
#155 = LOCAL_TIME ( 11, 3, 7.000000000000000000, #197 ) ;
#156 =( NAMED_UNIT ( * ) PLANE_ANGLE_UNIT ( ) SI_UNIT ( $, .RADIAN. ) );
#157 = DIRECTION ( 'NONE',  ( 1.698324859472653668E-30, -1.000000000000000000, 4.864195722825704119E-16 ) ) ;
#158 = DIRECTION ( 'NONE',  ( 0.0000000000000000000, 0.0000000000000000000, 1.000000000000000000 ) ) ;
#159 = CC_DESIGN_PERSON_AND_ORGANIZATION_ASSIGNMENT ( #220, #53, ( #103 ) ) ;
#160 = DIRECTION ( 'NONE',  ( -1.698324859472653668E-30, 1.000000000000000000, -4.864195722825704119E-16 ) ) ;
#161 = EDGE_CURVE ( 'NONE', #201, #201, #46, .T. ) ;
#162 = APPROVAL_DATE_TIME ( #122, #84 ) ;
#163 = ORIENTED_EDGE ( 'NONE', *, *, #238, .F. ) ;
#164 = EDGE_LOOP ( 'NONE', ( #163 ) ) ;
#165 = CALENDAR_DATE ( 2021, 26, 11 ) ;
#166 = CALENDAR_DATE ( 2021, 26, 11 ) ;
#167 = ORIENTED_EDGE ( 'NONE', *, *, #181, .F. ) ;
#168 = DIRECTION ( 'NONE',  ( 0.0000000000000000000, 1.000000000000000000, 0.0000000000000000000 ) ) ;
#169 = CIRCLE ( 'NONE', #69, 2.343999999999997641 ) ;
#170 = APPROVAL_PERSON_ORGANIZATION ( #125, #81, #9 ) ;
#171 = DIRECTION ( 'NONE',  ( 1.698324859472653317E-30, -1.000000000000000000, 4.864195722825704119E-16 ) ) ;
#172 = AXIS2_PLACEMENT_3D ( 'NONE', #146, #38, #78 ) ;
#173 = PERSON_AND_ORGANIZATION ( #97, #13 ) ;
#174 = DIRECTION ( 'NONE',  ( -3.491481338843133355E-15, -4.864195722825704119E-16, -1.000000000000000000 ) ) ;
#175 = DIRECTION ( 'NONE',  ( -3.491481338843133355E-15, -4.864195722825704119E-16, -1.000000000000000000 ) ) ;
#176 = DIRECTION ( 'NONE',  ( -3.491481338843133355E-15, 9.031770143711729009E-17, -1.000000000000000000 ) ) ;
#177 = APPLICATION_CONTEXT ( 'configuration controlled 3d designs of mechanical parts and assemblies' ) ;
#178 = CONICAL_SURFACE ( 'NONE', #87, 2.343999999999999417, 0.5235987755982932645 ) ;
#179 = APPROVAL_ROLE ( '' ) ;
#180 = COORDINATED_UNIVERSAL_TIME_OFFSET ( 1, 0, .AHEAD. ) ;
#181 = EDGE_CURVE ( 'NONE', #12, #12, #66, .T. ) ;
#182 = ORIENTED_EDGE ( 'NONE', *, *, #90, .T. ) ;
#183 = LOCAL_TIME ( 11, 3, 7.000000000000000000, #180 ) ;
#184 = PERSON_AND_ORGANIZATION_ROLE ( 'design_supplier' ) ;
#185 = ORIENTED_EDGE ( 'NONE', *, *, #199, .T. ) ;
#186 = DATE_TIME_ROLE ( 'classification_date' ) ;
#187 = CIRCLE ( 'NONE', #229, 2.343999999999991424 ) ;
#188 = CLOSED_SHELL ( 'NONE', ( #210, #35, #116, #222, #226 ) ) ;
#189 = CARTESIAN_POINT ( 'NONE',  ( 4.677199906259694481E-14, 6.516092618260260423E-15, 13.39603295090053869 ) ) ;
#190 = DIRECTION ( 'NONE',  ( -3.491481338843133355E-15, -4.864195722825704119E-16, -1.000000000000000000 ) ) ;
#191 = DIRECTION ( 'NONE',  ( 3.491481338843133355E-15, 4.864195722825704119E-16, 1.000000000000000000 ) ) ;
#192 = EDGE_CURVE ( 'NONE', #147, #147, #187, .T. ) ;
#193 = AXIS2_PLACEMENT_3D ( 'NONE', #206, #44, #2 ) ;
#194 = SHAPE_DEFINITION_REPRESENTATION ( #225, #239 ) ;
#195 = PERSON_AND_ORGANIZATION_ROLE ( 'classification_officer' ) ;
#196 =( NAMED_UNIT ( * ) SI_UNIT ( $, .STERADIAN. ) SOLID_ANGLE_UNIT ( ) );
#197 = COORDINATED_UNIVERSAL_TIME_OFFSET ( 1, 0, .AHEAD. ) ;
#198 = DIRECTION ( 'NONE',  ( -3.491481338843133355E-15, -4.864195722825704119E-16, -1.000000000000000000 ) ) ;
#199 = EDGE_CURVE ( 'NONE', #85, #85, #96, .T. ) ;
#200 = DIRECTION ( 'NONE',  ( -2.629255896774393116E-30, 1.000000000000000000, -7.400697423109272584E-16 ) ) ;
#201 = VERTEX_POINT ( 'NONE', #130 ) ;
#202 = CIRCLE ( 'NONE', #59, 2.113059892324147704 ) ;
#203 = DIRECTION ( 'NONE',  ( 3.491481338843133355E-15, -9.031770143711729009E-17, 1.000000000000000000 ) ) ;
#204 = PLANE ( 'NONE',  #154 ) ;
#205 =( GEOMETRIC_REPRESENTATION_CONTEXT ( 3 ) GLOBAL_UNCERTAINTY_ASSIGNED_CONTEXT ( ( #112 ) ) GLOBAL_UNIT_ASSIGNED_CONTEXT ( ( #48, #156, #196 ) ) REPRESENTATION_CONTEXT ( 'NONE', 'WORKASPACE' ) );
#206 = CARTESIAN_POINT ( 'NONE',  ( 2.779219145719134403E-13, -7.189289034394536528E-15, 79.60000000000000853 ) ) ;
#207 = PLANE ( 'NONE',  #8 ) ;
#208 = AXIS2_PLACEMENT_3D ( 'NONE', #150, #100, #115 ) ;
#209 = PERSON_AND_ORGANIZATION_ROLE ( 'design_owner' ) ;
#210 = ADVANCED_FACE ( 'NONE', ( #65 ), #204, .T. ) ;
#211 = VERTEX_POINT ( 'NONE', #104 ) ;
#212 = DATE_AND_TIME ( #166, #155 ) ;
#213 = CC_DESIGN_APPROVAL ( #84, ( #103 ) ) ;
#214 = CC_DESIGN_SECURITY_CLASSIFICATION ( #15, ( #37 ) ) ;
#215 = SECURITY_CLASSIFICATION_LEVEL ( 'unclassified' ) ;
#216 = DIRECTION ( 'NONE',  ( -3.153425691349006731E-31, -1.000000000000000000, -9.031770143711729009E-17 ) ) ;
#217 = FACE_OUTER_BOUND ( 'NONE', #58, .T. ) ;
#218 = EDGE_LOOP ( 'NONE', ( #36 ) ) ;
#219 = CYLINDRICAL_SURFACE ( 'NONE', #118, 1.999999999999993561 ) ;
#220 = PERSON_AND_ORGANIZATION ( #97, #13 ) ;
#221 = AXIS2_PLACEMENT_3D ( 'NONE', #6, #175, #73 ) ;
#222 = ADVANCED_FACE ( 'NONE', ( #138, #28 ), #178, .T. ) ;
#223 = EDGE_LOOP ( 'NONE', ( #111 ) ) ;
#224 = EDGE_LOOP ( 'NONE', ( #127 ) ) ;
#225 = PRODUCT_DEFINITION_SHAPE ( 'NONE', 'NONE',  #103 ) ;
#226 = ADVANCED_FACE ( 'NONE', ( #32 ), #108, .T. ) ;
#227 = AXIS2_PLACEMENT_3D ( 'NONE', #55, #198, #236 ) ;
#228 = CARTESIAN_POINT ( 'NONE',  ( 2.793185071074506684E-13, -7.225416114969383207E-15, 80.00000000000000000 ) ) ;
#229 = AXIS2_PLACEMENT_3D ( 'NONE', #189, #174, #200 ) ;
#230 = ADVANCED_FACE ( 'NONE', ( #148 ), #41, .T. ) ;
#231 = CARTESIAN_POINT ( 'NONE',  ( 2.793185071074506684E-13, 1.599999999999987876, 80.00000000000000000 ) ) ;
#232 = FACE_BOUND ( 'NONE', #164, .T. ) ;
#233 = PRODUCT_RELATED_PRODUCT_CATEGORY ( 'detail', '', ( #26 ) ) ;
#234 = CIRCLE ( 'NONE', #172, 2.343999999999999417 ) ;
#235 = DIRECTION ( 'NONE',  ( 0.0000000000000000000, 1.000000000000000000, 0.0000000000000000000 ) ) ;
#236 = DIRECTION ( 'NONE',  ( -1.698324859472653317E-30, 1.000000000000000000, -4.864195722825704119E-16 ) ) ;
#237 = COORDINATED_UNIVERSAL_TIME_OFFSET ( 1, 0, .AHEAD. ) ;
#238 = EDGE_CURVE ( 'NONE', #211, #211, #202, .T. ) ;
#239 = ADVANCED_BREP_SHAPE_REPRESENTATION ( '321372', ( #132, #56, #121 ), #205 ) ;
#240 = CONICAL_SURFACE ( 'NONE', #193, 1.999999999999995337, 0.7853981633974516097 ) ;
#241 = PERSON_AND_ORGANIZATION ( #97, #13 ) ;
#242 = DIRECTION ( 'NONE',  ( -3.491481338843133355E-15, 9.031770143711729009E-17, -1.000000000000000000 ) ) ;
#243 = ADVANCED_FACE ( 'NONE', ( #88, #232 ), #83, .T. ) ;
ENDSEC;
END-ISO-10303-21;
