ISO-10303-21;
HEADER;
FILE_DESCRIPTION (( 'STEP AP203' ),
    '1' );
FILE_NAME ('321371.step',
    '2021-11-26T10:03:07',
    ( '' ),
    ( '' ),
    'SwSTEP 2.0',
    'SolidWorks 2019',
    '' );
FILE_SCHEMA (( 'CONFIG_CONTROL_DESIGN' ));
ENDSEC;

DATA;
#1 = CARTESIAN_POINT ( 'NONE',  ( 4.680223617795970723E-14, 2.338999999999998192, 13.40469320493838090 ) ) ;
#2 = EDGE_CURVE ( 'NONE', #168, #168, #8, .T. ) ;
#3 = APPROVAL_PERSON_ORGANIZATION ( #27, #218, #172 ) ;
#4 = EDGE_LOOP ( 'NONE', ( #113 ) ) ;
#5 = EDGE_LOOP ( 'NONE', ( #163 ) ) ;
#6 = COORDINATED_UNIVERSAL_TIME_OFFSET ( 1, 0, .AHEAD. ) ;
#7 = CC_DESIGN_PERSON_AND_ORGANIZATION_ASSIGNMENT ( #223, #201, ( #18 ) ) ;
#8 = CIRCLE ( 'NONE', #169, 1.999999999999995337 ) ;
#9 = VERTEX_POINT ( 'NONE', #78 ) ;
#10 = CIRCLE ( 'NONE', #162, 1.999999999999991784 ) ;
#11 = DIRECTION ( 'NONE',  ( -3.491481338843133355E-15, -4.859470760123793888E-16, -1.000000000000000000 ) ) ;
#12 = PERSON_AND_ORGANIZATION ( #189, #36 ) ;
#13 = CALENDAR_DATE ( 2021, 26, 11 ) ;
#14 = CIRCLE ( 'NONE', #215, 2.338999999999999524 ) ;
#15 = CC_DESIGN_APPROVAL ( #224, ( #110 ) ) ;
#16 = DIRECTION ( 'NONE',  ( 3.153425691349006731E-31, 1.000000000000000000, 9.031770143711729009E-17 ) ) ;
#17 = APPROVAL_STATUS ( 'not_yet_approved' ) ;
#18 = PRODUCT ( '321371', '321371', '', ( #181 ) ) ;
#19 = CC_DESIGN_PERSON_AND_ORGANIZATION_ASSIGNMENT ( #229, #120, ( #133 ) ) ;
#20 = VERTEX_POINT ( 'NONE', #130 ) ;
#21 = AXIS2_PLACEMENT_3D ( 'NONE', #86, #97, #238 ) ;
#22 = APPROVAL ( #93, 'UNSPECIFIED' ) ;
#23 = COORDINATED_UNIVERSAL_TIME_OFFSET ( 1, 0, .AHEAD. ) ;
#24 = VERTEX_POINT ( 'NONE', #94 ) ;
#25 = CARTESIAN_POINT ( 'NONE',  ( -1.788346414439945493E-30, 2.108059892324148699, -5.122027703669457643E-16 ) ) ;
#26 = ORIENTED_EDGE ( 'NONE', *, *, #84, .T. ) ;
#27 = PERSON_AND_ORGANIZATION ( #189, #36 ) ;
#28 = DIRECTION ( 'NONE',  ( 0.0000000000000000000, 1.000000000000000000, 0.0000000000000000000 ) ) ;
#29 = APPROVAL_STATUS ( 'not_yet_approved' ) ;
#30 = FACE_OUTER_BOUND ( 'NONE', #4, .T. ) ;
#31 = CC_DESIGN_DATE_AND_TIME_ASSIGNMENT ( #74, #129, ( #63 ) ) ;
#32 = AXIS2_PLACEMENT_3D ( 'NONE', #99, #193, #208 ) ;
#33 = LOCAL_TIME ( 11, 3, 7.000000000000000000, #235 ) ;
#34 = FACE_OUTER_BOUND ( 'NONE', #187, .T. ) ;
#35 = CALENDAR_DATE ( 2021, 26, 11 ) ;
#36 = ORGANIZATION ( 'UNSPECIFIED', 'UNSPECIFIED', '' ) ;
#37 = DIRECTION ( 'NONE',  ( 1.696675147562608155E-30, -1.000000000000000000, 4.859470760123793888E-16 ) ) ;
#38 =( LENGTH_UNIT ( ) NAMED_UNIT ( * ) SI_UNIT ( .MILLI., .METRE. ) );
#39 = CARTESIAN_POINT ( 'NONE',  ( 4.680223617795970723E-14, 6.513971467782815857E-15, 13.40469320493838090 ) ) ;
#40 = FACE_OUTER_BOUND ( 'NONE', #183, .T. ) ;
#41 = DIRECTION ( 'NONE',  ( -3.491481338843133355E-15, -4.859470760123793888E-16, -1.000000000000000000 ) ) ;
#42 = DIRECTION ( 'NONE',  ( 0.0000000000000000000, 1.000000000000000000, 0.0000000000000000000 ) ) ;
#43 = EDGE_LOOP ( 'NONE', ( #26 ) ) ;
#44 = EDGE_LOOP ( 'NONE', ( #72 ) ) ;
#45 = FACE_OUTER_BOUND ( 'NONE', #134, .T. ) ;
#46 = APPROVAL_DATE_TIME ( #80, #218 ) ;
#47 = CARTESIAN_POINT ( 'NONE',  ( 4.885231259955590439E-14, -1.263712492114123682E-15, 13.99185842870425134 ) ) ;
#48 = DATE_AND_TIME ( #167, #160 ) ;
#49 = DIRECTION ( 'NONE',  ( 0.0000000000000000000, 1.000000000000000000, 0.0000000000000000000 ) ) ;
#50 = PERSON_AND_ORGANIZATION ( #189, #36 ) ;
#51 = CONICAL_SURFACE ( 'NONE', #221, 2.108059892324148699, 0.5235987755982979275 ) ;
#52 = ADVANCED_FACE ( 'NONE', ( #156 ), #236, .T. ) ;
#53 = AXIS2_PLACEMENT_3D ( 'NONE', #175, #188, #16 ) ;
#54 = CALENDAR_DATE ( 2021, 26, 11 ) ;
#55 = PLANE ( 'NONE',  #222 ) ;
#56 = COORDINATED_UNIVERSAL_TIME_OFFSET ( 1, 0, .AHEAD. ) ;
#57 = EDGE_CURVE ( 'NONE', #24, #24, #233, .T. ) ;
#58 = DIRECTION ( 'NONE',  ( -3.491481338843133355E-15, -4.859470760123793888E-16, -1.000000000000000000 ) ) ;
#59 = PERSON_AND_ORGANIZATION ( #189, #36 ) ;
#60 = DIRECTION ( 'NONE',  ( -3.491481338843133355E-15, 9.031770143711729009E-17, -1.000000000000000000 ) ) ;
#61 = SECURITY_CLASSIFICATION_LEVEL ( 'unclassified' ) ;
#62 = AXIS2_PLACEMENT_3D ( 'NONE', #153, #148, #225 ) ;
#63 = PRODUCT_DEFINITION ( 'UNKNOWN', '', #133, #237 ) ;
#64 = CALENDAR_DATE ( 2021, 26, 11 ) ;
#65 = ORIENTED_EDGE ( 'NONE', *, *, #145, .T. ) ;
#66 = FACE_OUTER_BOUND ( 'NONE', #212, .T. ) ;
#67 = FACE_OUTER_BOUND ( 'NONE', #105, .T. ) ;
#68 = CIRCLE ( 'NONE', #95, 2.338999999999991530 ) ;
#69 = AXIS2_PLACEMENT_3D ( 'NONE', #213, #185, #207 ) ;
#70 = ADVANCED_BREP_SHAPE_REPRESENTATION ( '321371', ( #124, #202, #158 ), #92 ) ;
#71 = EDGE_CURVE ( 'NONE', #9, #9, #240, .T. ) ;
#72 = ORIENTED_EDGE ( 'NONE', *, *, #71, .F. ) ;
#73 = CONICAL_SURFACE ( 'NONE', #190, 2.338999999999999524, 0.5235987755982927094 ) ;
#74 = DATE_AND_TIME ( #54, #137 ) ;
#75 = CLOSED_SHELL ( 'NONE', ( #230, #139, #132, #89, #52 ) ) ;
#76 = CARTESIAN_POINT ( 'NONE',  ( 4.885231259955590439E-14, 1.999999999999990452, 13.99185842870425134 ) ) ;
#77 = PERSON_AND_ORGANIZATION ( #189, #36 ) ;
#78 = CARTESIAN_POINT ( 'NONE',  ( 0.0000000000000000000, 2.108059892324148699, 0.0000000000000000000 ) ) ;
#79 = FACE_OUTER_BOUND ( 'NONE', #90, .T. ) ;
#80 = DATE_AND_TIME ( #13, #33 ) ;
#81 = PLANE ( 'NONE',  #69 ) ;
#82 = DIRECTION ( 'NONE',  ( -1.696675147562608155E-30, 1.000000000000000000, -4.859470760123793888E-16 ) ) ;
#83 = DATE_AND_TIME ( #64, #108 ) ;
#84 = EDGE_CURVE ( 'NONE', #227, #227, #14, .T. ) ;
#85 = APPLICATION_CONTEXT ( 'configuration controlled 3d designs of mechanical parts and assemblies' ) ;
#86 = CARTESIAN_POINT ( 'NONE',  ( 4.680223617795970723E-14, 2.338999999999998192, 13.40469320493838090 ) ) ;
#87 = DIRECTION ( 'NONE',  ( -2.634876366840178427E-30, 1.000000000000000000, -7.416517639917971181E-16 ) ) ;
#88 = LOCAL_TIME ( 11, 3, 7.000000000000000000, #6 ) ;
#89 = ADVANCED_FACE ( 'NONE', ( #171, #228 ), #73, .T. ) ;
#90 = EDGE_LOOP ( 'NONE', ( #118 ) ) ;
#91 = PERSON_AND_ORGANIZATION ( #189, #36 ) ;
#92 =( GEOMETRIC_REPRESENTATION_CONTEXT ( 3 ) GLOBAL_UNCERTAINTY_ASSIGNED_CONTEXT ( ( #138 ) ) GLOBAL_UNIT_ASSIGNED_CONTEXT ( ( #38, #147, #146 ) ) REPRESENTATION_CONTEXT ( 'NONE', 'WORKASPACE' ) );
#93 = APPROVAL_STATUS ( 'not_yet_approved' ) ;
#94 = CARTESIAN_POINT ( 'NONE',  ( 1.396592535537252948E-15, 2.338999999999998636, 0.3999999999999999112 ) ) ;
#95 = AXIS2_PLACEMENT_3D ( 'NONE', #179, #11, #87 ) ;
#96 = DIRECTION ( 'NONE',  ( 0.0000000000000000000, 1.000000000000000000, 0.0000000000000000000 ) ) ;
#97 = DIRECTION ( 'NONE',  ( -3.491481338843133355E-15, 9.031770143711729009E-17, -1.000000000000000000 ) ) ;
#98 = PRODUCT_RELATED_PRODUCT_CATEGORY ( 'detail', '', ( #18 ) ) ;
#99 = CARTESIAN_POINT ( 'NONE',  ( 3.576692828879890987E-30, 4.978068771705149418E-31, 1.024405540733891529E-15 ) ) ;
#100 = APPROVAL_ROLE ( '' ) ;
#101 = CARTESIAN_POINT ( 'NONE',  ( 0.0000000000000000000, 0.0000000000000000000, 0.0000000000000000000 ) ) ;
#102 = CARTESIAN_POINT ( 'NONE',  ( 2.779219145719134403E-13, -7.189289034394536528E-15, 79.60000000000000853 ) ) ;
#103 = AXIS2_PLACEMENT_3D ( 'NONE', #232, #58, #117 ) ;
#104 = APPROVAL_PERSON_ORGANIZATION ( #50, #22, #164 ) ;
#105 = EDGE_LOOP ( 'NONE', ( #166 ) ) ;
#106 = PRODUCT_DEFINITION_SHAPE ( 'NONE', 'NONE',  #63 ) ;
#107 = APPLICATION_CONTEXT ( 'configuration controlled 3d designs of mechanical parts and assemblies' ) ;
#108 = LOCAL_TIME ( 11, 3, 7.000000000000000000, #56 ) ;
#109 = DATE_AND_TIME ( #35, #88 ) ;
#110 = SECURITY_CLASSIFICATION ( '', '', #61 ) ;
#111 = APPROVAL_DATE_TIME ( #109, #22 ) ;
#112 = CARTESIAN_POINT ( 'NONE',  ( 2.779219145719134403E-13, 1.999999999999988010, 79.60000000000000853 ) ) ;
#113 = ORIENTED_EDGE ( 'NONE', *, *, #145, .F. ) ;
#114 = CYLINDRICAL_SURFACE ( 'NONE', #157, 2.338999999999995083 ) ;
#115 = EDGE_LOOP ( 'NONE', ( #65 ) ) ;
#116 = CC_DESIGN_APPROVAL ( #22, ( #63 ) ) ;
#117 = DIRECTION ( 'NONE',  ( -1.729137615738861685E-30, 1.000000000000000000, -4.867089701196153365E-16 ) ) ;
#118 = ORIENTED_EDGE ( 'NONE', *, *, #239, .F. ) ;
#119 = DIRECTION ( 'NONE',  ( -3.491481338843133355E-15, 9.031770143711729009E-17, -1.000000000000000000 ) ) ;
#120 = PERSON_AND_ORGANIZATION_ROLE ( 'design_supplier' ) ;
#121 = DIRECTION ( 'NONE',  ( -3.491481338843133355E-15, 9.031770143711729009E-17, -1.000000000000000000 ) ) ;
#122 = CARTESIAN_POINT ( 'NONE',  ( 2.779219145719134403E-13, -7.189289034394536528E-15, 79.60000000000000853 ) ) ;
#123 = APPROVAL_DATE_TIME ( #48, #224 ) ;
#124 = MANIFOLD_SOLID_BREP ( 'Corps-Déplacer/Copier1[1]', #75 ) ;
#125 = DIRECTION ( 'NONE',  ( 1.696675147562608155E-30, -1.000000000000000000, 4.859470760123794874E-16 ) ) ;
#126 = ORIENTED_EDGE ( 'NONE', *, *, #2, .T. ) ;
#127 = EDGE_LOOP ( 'NONE', ( #206 ) ) ;
#128 = AXIS2_PLACEMENT_3D ( 'NONE', #122, #191, #28 ) ;
#129 = DATE_TIME_ROLE ( 'creation_date' ) ;
#130 = CARTESIAN_POINT ( 'NONE',  ( 2.793185071074506684E-13, 1.599999999999987876, 80.00000000000000000 ) ) ;
#131 = COORDINATED_UNIVERSAL_TIME_OFFSET ( 1, 0, .AHEAD. ) ;
#132 = ADVANCED_FACE ( 'NONE', ( #40, #79 ), #216, .T. ) ;
#133 = PRODUCT_DEFINITION_FORMATION_WITH_SPECIFIED_SOURCE ( 'ANY', '', #18, .NOT_KNOWN. ) ;
#134 = EDGE_LOOP ( 'NONE', ( #141 ) ) ;
#135 = FACE_OUTER_BOUND ( 'NONE', #174, .T. ) ;
#136 = FACE_BOUND ( 'NONE', #44, .T. ) ;
#137 = LOCAL_TIME ( 11, 3, 7.000000000000000000, #23 ) ;
#138 = UNCERTAINTY_MEASURE_WITH_UNIT (LENGTH_MEASURE( 1.000000000000000082E-05 ), #38, 'distance_accuracy_value', 'NONE');
#139 = ADVANCED_FACE ( 'NONE', ( #234, #45 ), #209, .T. ) ;
#140 = DIRECTION ( 'NONE',  ( 0.0000000000000000000, 0.0000000000000000000, 1.000000000000000000 ) ) ;
#141 = ORIENTED_EDGE ( 'NONE', *, *, #2, .F. ) ;
#142 = CIRCLE ( 'NONE', #62, 1.599999999999994982 ) ;
#143 = ORIENTED_EDGE ( 'NONE', *, *, #84, .F. ) ;
#144 = DIRECTION ( 'NONE',  ( 1.000000000000000000, 0.0000000000000000000, 0.0000000000000000000 ) ) ;
#145 = EDGE_CURVE ( 'NONE', #180, #180, #68, .T. ) ;
#146 =( NAMED_UNIT ( * ) SI_UNIT ( $, .STERADIAN. ) SOLID_ANGLE_UNIT ( ) );
#147 =( NAMED_UNIT ( * ) PLANE_ANGLE_UNIT ( ) SI_UNIT ( $, .RADIAN. ) );
#148 = DIRECTION ( 'NONE',  ( -3.491481338843133355E-15, 9.031770143711729009E-17, -1.000000000000000000 ) ) ;
#149 = PERSON_AND_ORGANIZATION_ROLE ( 'classification_officer' ) ;
#150 = DIRECTION ( 'NONE',  ( -3.491481338843133355E-15, 9.031770143711729009E-17, -1.000000000000000000 ) ) ;
#151 = CC_DESIGN_PERSON_AND_ORGANIZATION_ASSIGNMENT ( #77, #149, ( #110 ) ) ;
#152 = DATE_TIME_ROLE ( 'classification_date' ) ;
#153 = CARTESIAN_POINT ( 'NONE',  ( 2.793185071074506684E-13, -7.225416114969383207E-15, 80.00000000000000000 ) ) ;
#154 = ADVANCED_FACE ( 'NONE', ( #67 ), #173, .T. ) ;
#155 = DIRECTION ( 'NONE',  ( -3.491481338843133355E-15, -4.859470760123793888E-16, -1.000000000000000000 ) ) ;
#156 = FACE_OUTER_BOUND ( 'NONE', #43, .T. ) ;
#157 = AXIS2_PLACEMENT_3D ( 'NONE', #101, #41, #211 ) ;
#158 = AXIS2_PLACEMENT_3D ( 'NONE', #199, #140, #144 ) ;
#159 = CC_DESIGN_PERSON_AND_ORGANIZATION_ASSIGNMENT ( #59, #226, ( #133 ) ) ;
#160 = LOCAL_TIME ( 11, 3, 7.000000000000000000, #131 ) ;
#161 = AXIS2_PLACEMENT_3D ( 'NONE', #25, #155, #82 ) ;
#162 = AXIS2_PLACEMENT_3D ( 'NONE', #47, #121, #192 ) ;
#163 = ORIENTED_EDGE ( 'NONE', *, *, #239, .T. ) ;
#164 = APPROVAL_ROLE ( '' ) ;
#165 = PERSON_AND_ORGANIZATION_ROLE ( 'creator' ) ;
#166 = ORIENTED_EDGE ( 'NONE', *, *, #71, .T. ) ;
#167 = CALENDAR_DATE ( 2021, 26, 11 ) ;
#168 = VERTEX_POINT ( 'NONE', #112 ) ;
#169 = AXIS2_PLACEMENT_3D ( 'NONE', #102, #150, #96 ) ;
#170 = APPROVAL_PERSON_ORGANIZATION ( #12, #224, #100 ) ;
#171 = FACE_BOUND ( 'NONE', #5, .T. ) ;
#172 = APPROVAL_ROLE ( '' ) ;
#173 = PLANE ( 'NONE',  #161 ) ;
#174 = EDGE_LOOP ( 'NONE', ( #231 ) ) ;
#175 = CARTESIAN_POINT ( 'NONE',  ( 0.0000000000000000000, 0.0000000000000000000, 0.0000000000000000000 ) ) ;
#176 = SHAPE_DEFINITION_REPRESENTATION ( #106, #70 ) ;
#177 = CC_DESIGN_DATE_AND_TIME_ASSIGNMENT ( #83, #152, ( #110 ) ) ;
#178 = ORIENTED_EDGE ( 'NONE', *, *, #57, .T. ) ;
#179 = CARTESIAN_POINT ( 'NONE',  ( 4.680223617795971354E-14, 6.513971467782817435E-15, 13.40469320493838268 ) ) ;
#180 = VERTEX_POINT ( 'NONE', #195 ) ;
#181 = MECHANICAL_CONTEXT ( 'NONE', #107, 'mechanical' ) ;
#182 = APPLICATION_PROTOCOL_DEFINITION ( 'international standard', 'config_control_design', 1994, #85 ) ;
#183 = EDGE_LOOP ( 'NONE', ( #126 ) ) ;
#184 = APPLICATION_PROTOCOL_DEFINITION ( 'international standard', 'config_control_design', 1994, #107 ) ;
#185 = DIRECTION ( 'NONE',  ( 3.491481338843133355E-15, -9.031770143711729009E-17, 1.000000000000000000 ) ) ;
#186 = ADVANCED_FACE ( 'NONE', ( #66, #136 ), #51, .T. ) ;
#187 = EDGE_LOOP ( 'NONE', ( #200 ) ) ;
#188 = DIRECTION ( 'NONE',  ( -3.491481338843133355E-15, 9.031770143711729009E-17, -1.000000000000000000 ) ) ;
#189 = PERSON ( 'UNSPECIFIED', 'UNSPECIFIED', 'UNSPECIFIED', ('UNSPECIFIED'), ('UNSPECIFIED'), ('UNSPECIFIED') ) ;
#190 = AXIS2_PLACEMENT_3D ( 'NONE', #210, #119, #42 ) ;
#191 = DIRECTION ( 'NONE',  ( -3.491481338843133355E-15, 9.031770143711729009E-17, -1.000000000000000000 ) ) ;
#192 = DIRECTION ( 'NONE',  ( 0.0000000000000000000, 1.000000000000000000, 0.0000000000000000000 ) ) ;
#193 = DIRECTION ( 'NONE',  ( -3.491481338843133355E-15, -4.859470760123793888E-16, -1.000000000000000000 ) ) ;
#194 = ADVANCED_FACE ( 'NONE', ( #198, #34 ), #114, .T. ) ;
#195 = CARTESIAN_POINT ( 'NONE',  ( 4.680223617795970723E-14, 2.338999999999998192, 13.40469320493838090 ) ) ;
#196 = CLOSED_SHELL ( 'NONE', ( #241, #194, #186, #154 ) ) ;
#197 = CC_DESIGN_SECURITY_CLASSIFICATION ( #110, ( #133 ) ) ;
#198 = FACE_OUTER_BOUND ( 'NONE', #115, .T. ) ;
#199 = CARTESIAN_POINT ( 'NONE',  ( 0.0000000000000000000, 0.0000000000000000000, 0.0000000000000000000 ) ) ;
#200 = ORIENTED_EDGE ( 'NONE', *, *, #57, .F. ) ;
#201 = PERSON_AND_ORGANIZATION_ROLE ( 'design_owner' ) ;
#202 = MANIFOLD_SOLID_BREP ( 'Corps-Déplacer/Copier1[2]', #196 ) ;
#203 = VERTEX_POINT ( 'NONE', #76 ) ;
#204 = EDGE_CURVE ( 'NONE', #20, #20, #142, .T. ) ;
#205 = DIRECTION ( 'NONE',  ( 3.491481338843133355E-15, 4.859470760123793888E-16, 1.000000000000000000 ) ) ;
#206 = ORIENTED_EDGE ( 'NONE', *, *, #204, .T. ) ;
#207 = DIRECTION ( 'NONE',  ( -3.153425691349006731E-31, -1.000000000000000000, -9.031770143711729009E-17 ) ) ;
#208 = DIRECTION ( 'NONE',  ( -1.696675147562608155E-30, 1.000000000000000000, -4.859470760123794874E-16 ) ) ;
#209 = CONICAL_SURFACE ( 'NONE', #128, 1.999999999999995337, 0.7853981633974516097 ) ;
#210 = CARTESIAN_POINT ( 'NONE',  ( 4.680223617795970723E-14, -1.210681078739779701E-15, 13.40469320493838090 ) ) ;
#211 = DIRECTION ( 'NONE',  ( -1.696675147562608155E-30, 1.000000000000000000, -4.859470760123793888E-16 ) ) ;
#212 = EDGE_LOOP ( 'NONE', ( #178 ) ) ;
#213 = CARTESIAN_POINT ( 'NONE',  ( 2.793185071074506684E-13, -7.225416114969383207E-15, 80.00000000000000000 ) ) ;
#214 = CARTESIAN_POINT ( 'NONE',  ( 4.680223617795970723E-14, -1.210681078739779701E-15, 13.40469320493838090 ) ) ;
#215 = AXIS2_PLACEMENT_3D ( 'NONE', #214, #60, #49 ) ;
#216 = CYLINDRICAL_SURFACE ( 'NONE', #53, 1.999999999999993561 ) ;
#217 = CC_DESIGN_PERSON_AND_ORGANIZATION_ASSIGNMENT ( #91, #165, ( #63 ) ) ;
#218 = APPROVAL ( #29, 'UNSPECIFIED' ) ;
#219 = CC_DESIGN_APPROVAL ( #218, ( #133 ) ) ;
#220 = EDGE_LOOP ( 'NONE', ( #143 ) ) ;
#221 = AXIS2_PLACEMENT_3D ( 'NONE', #242, #243, #125 ) ;
#222 = AXIS2_PLACEMENT_3D ( 'NONE', #39, #205, #37 ) ;
#223 = PERSON_AND_ORGANIZATION ( #189, #36 ) ;
#224 = APPROVAL ( #17, 'UNSPECIFIED' ) ;
#225 = DIRECTION ( 'NONE',  ( 0.0000000000000000000, 1.000000000000000000, 0.0000000000000000000 ) ) ;
#226 = PERSON_AND_ORGANIZATION_ROLE ( 'creator' ) ;
#227 = VERTEX_POINT ( 'NONE', #1 ) ;
#228 = FACE_OUTER_BOUND ( 'NONE', #220, .T. ) ;
#229 = PERSON_AND_ORGANIZATION ( #189, #36 ) ;
#230 = ADVANCED_FACE ( 'NONE', ( #135 ), #81, .T. ) ;
#231 = ORIENTED_EDGE ( 'NONE', *, *, #204, .F. ) ;
#232 = CARTESIAN_POINT ( 'NONE',  ( 1.396592535537256892E-15, 1.943788304049522584E-16, 0.4000000000000010214 ) ) ;
#233 = CIRCLE ( 'NONE', #103, 2.338999999999998636 ) ;
#234 = FACE_BOUND ( 'NONE', #127, .T. ) ;
#235 = COORDINATED_UNIVERSAL_TIME_OFFSET ( 1, 0, .AHEAD. ) ;
#236 = PLANE ( 'NONE',  #21 ) ;
#237 = DESIGN_CONTEXT ( 'detailed design', #85, 'design' ) ;
#238 = DIRECTION ( 'NONE',  ( 3.153425691349006731E-31, 1.000000000000000000, 9.031770143711729009E-17 ) ) ;
#239 = EDGE_CURVE ( 'NONE', #203, #203, #10, .T. ) ;
#240 = CIRCLE ( 'NONE', #32, 2.108059892324148699 ) ;
#241 = ADVANCED_FACE ( 'NONE', ( #30 ), #55, .T. ) ;
#242 = CARTESIAN_POINT ( 'NONE',  ( 3.576692828879890987E-30, 4.978068771705149418E-31, 1.024405540733891529E-15 ) ) ;
#243 = DIRECTION ( 'NONE',  ( 3.491481338843133355E-15, 4.859470760123793888E-16, 1.000000000000000000 ) ) ;
ENDSEC;
END-ISO-10303-21;
