ISO-10303-21;
HEADER;
FILE_DESCRIPTION (( 'STEP AP203' ),
    '1' );
FILE_NAME ('321370.step',
    '2021-11-26T10:03:06',
    ( '' ),
    ( '' ),
    'SwSTEP 2.0',
    'SolidWorks 2019',
    '' );
FILE_SCHEMA (( 'CONFIG_CONTROL_DESIGN' ));
ENDSEC;

DATA;
#1 = CARTESIAN_POINT ( 'NONE',  ( -1.782372245120847743E-30, 2.103059892324148361, -5.104917002682359080E-16 ) ) ;
#2 = PRODUCT_RELATED_PRODUCT_CATEGORY ( 'detail', '', ( #91 ) ) ;
#3 = CARTESIAN_POINT ( 'NONE',  ( 0.0000000000000000000, 2.103059892324148361, 0.0000000000000000000 ) ) ;
#4 = MECHANICAL_CONTEXT ( 'NONE', #217, 'mechanical' ) ;
#5 = DIRECTION ( 'NONE',  ( 0.0000000000000000000, 1.000000000000000000, 0.0000000000000000000 ) ) ;
#6 = CIRCLE ( 'NONE', #95, 2.333999999999992081 ) ;
#7 = DATE_AND_TIME ( #100, #201 ) ;
#8 = APPROVAL_STATUS ( 'not_yet_approved' ) ;
#9 = PERSON_AND_ORGANIZATION ( #140, #204 ) ;
#10 = AXIS2_PLACEMENT_3D ( 'NONE', #28, #175, #12 ) ;
#11 = EDGE_CURVE ( 'NONE', #71, #71, #235, .T. ) ;
#12 = DIRECTION ( 'NONE',  ( -1.732841852276434911E-30, 1.000000000000000000, -4.877516200127595212E-16 ) ) ;
#13 = CALENDAR_DATE ( 2021, 26, 11 ) ;
#14 = AXIS2_PLACEMENT_3D ( 'NONE', #231, #211, #190 ) ;
#15 = FACE_OUTER_BOUND ( 'NONE', #193, .T. ) ;
#16 = AXIS2_PLACEMENT_3D ( 'NONE', #239, #219, #182 ) ;
#17 =( LENGTH_UNIT ( ) NAMED_UNIT ( * ) SI_UNIT ( .MILLI., .METRE. ) );
#18 = EDGE_LOOP ( 'NONE', ( #72 ) ) ;
#19 = VERTEX_POINT ( 'NONE', #120 ) ;
#20 = DIRECTION ( 'NONE',  ( 1.000000000000000000, 0.0000000000000000000, 0.0000000000000000000 ) ) ;
#21 = CONICAL_SURFACE ( 'NONE', #115, 2.333999999999999631, 0.5235987755982922653 ) ;
#22 = CARTESIAN_POINT ( 'NONE',  ( 2.779219145719134403E-13, 1.999999999999988010, 79.60000000000000853 ) ) ;
#23 = CALENDAR_DATE ( 2021, 26, 11 ) ;
#24 = COORDINATED_UNIVERSAL_TIME_OFFSET ( 1, 0, .AHEAD. ) ;
#25 = AXIS2_PLACEMENT_3D ( 'NONE', #73, #145, #180 ) ;
#26 = EDGE_LOOP ( 'NONE', ( #136 ) ) ;
#27 = DATE_TIME_ROLE ( 'creation_date' ) ;
#28 = CARTESIAN_POINT ( 'NONE',  ( 1.396592535537256892E-15, 1.941900759484616090E-16, 0.4000000000000010214 ) ) ;
#29 = DIRECTION ( 'NONE',  ( 0.0000000000000000000, 1.000000000000000000, 0.0000000000000000000 ) ) ;
#30 =( GEOMETRIC_REPRESENTATION_CONTEXT ( 3 ) GLOBAL_UNCERTAINTY_ASSIGNED_CONTEXT ( ( #94 ) ) GLOBAL_UNIT_ASSIGNED_CONTEXT ( ( #17, #225, #118 ) ) REPRESENTATION_CONTEXT ( 'NONE', 'WORKASPACE' ) );
#31 = EDGE_LOOP ( 'NONE', ( #77 ) ) ;
#32 = CARTESIAN_POINT ( 'NONE',  ( 0.0000000000000000000, 0.0000000000000000000, 0.0000000000000000000 ) ) ;
#33 = CC_DESIGN_APPROVAL ( #160, ( #192 ) ) ;
#34 = LOCAL_TIME ( 11, 3, 6.000000000000000000, #101 ) ;
#35 = ADVANCED_FACE ( 'NONE', ( #147 ), #41, .T. ) ;
#36 = CC_DESIGN_PERSON_AND_ORGANIZATION_ASSIGNMENT ( #9, #44, ( #192 ) ) ;
#37 = PERSON_AND_ORGANIZATION_ROLE ( 'design_owner' ) ;
#38 = CIRCLE ( 'NONE', #68, 1.999999999999995337 ) ;
#39 = DIRECTION ( 'NONE',  ( 3.491481338843133355E-15, 4.854751898711527159E-16, 1.000000000000000000 ) ) ;
#40 = VERTEX_POINT ( 'NONE', #3 ) ;
#41 = PLANE ( 'NONE',  #209 ) ;
#42 = DIRECTION ( 'NONE',  ( 1.695027565906456580E-30, -1.000000000000000000, 4.854751898711527159E-16 ) ) ;
#43 = CARTESIAN_POINT ( 'NONE',  ( 2.779219145719134403E-13, -7.189289034394536528E-15, 79.60000000000000853 ) ) ;
#44 = PERSON_AND_ORGANIZATION_ROLE ( 'design_supplier' ) ;
#45 = ADVANCED_FACE ( 'NONE', ( #133 ), #206, .T. ) ;
#46 = AXIS2_PLACEMENT_3D ( 'NONE', #83, #62, #135 ) ;
#47 = EDGE_LOOP ( 'NONE', ( #104 ) ) ;
#48 = APPROVAL ( #49, 'UNSPECIFIED' ) ;
#49 = APPROVAL_STATUS ( 'not_yet_approved' ) ;
#50 = SECURITY_CLASSIFICATION ( '', '', #121 ) ;
#51 = EDGE_LOOP ( 'NONE', ( #74 ) ) ;
#52 = EDGE_CURVE ( 'NONE', #203, #203, #161, .T. ) ;
#53 = CC_DESIGN_PERSON_AND_ORGANIZATION_ASSIGNMENT ( #106, #195, ( #229 ) ) ;
#54 = PLANE ( 'NONE',  #141 ) ;
#55 = CC_DESIGN_APPROVAL ( #48, ( #50 ) ) ;
#56 = DIRECTION ( 'NONE',  ( -3.491481338843133355E-15, 9.031770143711729009E-17, -1.000000000000000000 ) ) ;
#57 = DIRECTION ( 'NONE',  ( 0.0000000000000000000, 1.000000000000000000, 0.0000000000000000000 ) ) ;
#58 = APPLICATION_PROTOCOL_DEFINITION ( 'international standard', 'config_control_design', 1994, #217 ) ;
#59 = EDGE_CURVE ( 'NONE', #40, #40, #124, .T. ) ;
#60 = CIRCLE ( 'NONE', #129, 1.599999999999994982 ) ;
#61 = PERSON_AND_ORGANIZATION_ROLE ( 'classification_officer' ) ;
#62 = DIRECTION ( 'NONE',  ( -3.491481338843133355E-15, -4.854751898711527159E-16, -1.000000000000000000 ) ) ;
#63 = EDGE_LOOP ( 'NONE', ( #221 ) ) ;
#64 = PERSON_AND_ORGANIZATION_ROLE ( 'creator' ) ;
#65 = DATE_AND_TIME ( #85, #138 ) ;
#66 = ORIENTED_EDGE ( 'NONE', *, *, #11, .T. ) ;
#67 = DIRECTION ( 'NONE',  ( 3.153425691349006731E-31, 1.000000000000000000, 9.031770143711729009E-17 ) ) ;
#68 = AXIS2_PLACEMENT_3D ( 'NONE', #43, #56, #57 ) ;
#69 = CC_DESIGN_PERSON_AND_ORGANIZATION_ASSIGNMENT ( #130, #37, ( #91 ) ) ;
#70 = CC_DESIGN_APPROVAL ( #110, ( #229 ) ) ;
#71 = VERTEX_POINT ( 'NONE', #164 ) ;
#72 = ORIENTED_EDGE ( 'NONE', *, *, #198, .F. ) ;
#73 = CARTESIAN_POINT ( 'NONE',  ( 4.683247329332248228E-14, -1.211463252978338997E-15, 13.41335345897622489 ) ) ;
#74 = ORIENTED_EDGE ( 'NONE', *, *, #108, .F. ) ;
#75 = AXIS2_PLACEMENT_3D ( 'NONE', #222, #177, #67 ) ;
#76 = CARTESIAN_POINT ( 'NONE',  ( 4.885231259955590439E-14, 1.999999999999990452, 13.99185842870425134 ) ) ;
#77 = ORIENTED_EDGE ( 'NONE', *, *, #89, .F. ) ;
#78 = CARTESIAN_POINT ( 'NONE',  ( 2.793185071074506684E-13, 1.599999999999987876, 80.00000000000000000 ) ) ;
#79 = ADVANCED_FACE ( 'NONE', ( #202, #199 ), #179, .T. ) ;
#80 = CARTESIAN_POINT ( 'NONE',  ( 0.0000000000000000000, 0.0000000000000000000, 0.0000000000000000000 ) ) ;
#81 = APPLICATION_PROTOCOL_DEFINITION ( 'international standard', 'config_control_design', 1994, #109 ) ;
#82 = AXIS2_PLACEMENT_3D ( 'NONE', #93, #220, #29 ) ;
#83 = CARTESIAN_POINT ( 'NONE',  ( 3.564744490241695485E-30, 4.956621102307388146E-31, 1.020983400536471816E-15 ) ) ;
#84 = SHAPE_DEFINITION_REPRESENTATION ( #155, #131 ) ;
#85 = CALENDAR_DATE ( 2021, 26, 11 ) ;
#86 = APPROVAL_STATUS ( 'not_yet_approved' ) ;
#87 = APPROVAL_PERSON_ORGANIZATION ( #152, #160, #105 ) ;
#88 = DATE_AND_TIME ( #137, #156 ) ;
#89 = EDGE_CURVE ( 'NONE', #19, #19, #6, .T. ) ;
#90 = CLOSED_SHELL ( 'NONE', ( #45, #79, #207, #169, #114 ) ) ;
#91 = PRODUCT ( '321370', '321370', '', ( #4 ) ) ;
#92 = PLANE ( 'NONE',  #75 ) ;
#93 = CARTESIAN_POINT ( 'NONE',  ( 2.779219145719134403E-13, -7.189289034394536528E-15, 79.60000000000000853 ) ) ;
#94 = UNCERTAINTY_MEASURE_WITH_UNIT (LENGTH_MEASURE( 1.000000000000000082E-05 ), #17, 'distance_accuracy_value', 'NONE');
#95 = AXIS2_PLACEMENT_3D ( 'NONE', #125, #107, #213 ) ;
#96 = EDGE_LOOP ( 'NONE', ( #66 ) ) ;
#97 = CARTESIAN_POINT ( 'NONE',  ( 0.0000000000000000000, 0.0000000000000000000, 0.0000000000000000000 ) ) ;
#98 = AXIS2_PLACEMENT_3D ( 'NONE', #119, #188, #134 ) ;
#99 = FACE_OUTER_BOUND ( 'NONE', #242, .T. ) ;
#100 = CALENDAR_DATE ( 2021, 26, 11 ) ;
#101 = COORDINATED_UNIVERSAL_TIME_OFFSET ( 1, 0, .AHEAD. ) ;
#102 = CLOSED_SHELL ( 'NONE', ( #216, #143, #153, #35 ) ) ;
#103 = CONICAL_SURFACE ( 'NONE', #16, 2.103059892324148361, 0.5235987755982979275 ) ;
#104 = ORIENTED_EDGE ( 'NONE', *, *, #59, .F. ) ;
#105 = APPROVAL_ROLE ( '' ) ;
#106 = PERSON_AND_ORGANIZATION ( #140, #204 ) ;
#107 = DIRECTION ( 'NONE',  ( -3.491481338843133355E-15, -4.854751898711527159E-16, -1.000000000000000000 ) ) ;
#108 = EDGE_CURVE ( 'NONE', #227, #227, #60, .T. ) ;
#109 = APPLICATION_CONTEXT ( 'configuration controlled 3d designs of mechanical parts and assemblies' ) ;
#110 = APPROVAL ( #86, 'UNSPECIFIED' ) ;
#111 = DIRECTION ( 'NONE',  ( -3.491481338843133355E-15, -4.854751898711527159E-16, -1.000000000000000000 ) ) ;
#112 = AXIS2_PLACEMENT_3D ( 'NONE', #97, #113, #132 ) ;
#113 = DIRECTION ( 'NONE',  ( -3.491481338843133355E-15, 9.031770143711729009E-17, -1.000000000000000000 ) ) ;
#114 = ADVANCED_FACE ( 'NONE', ( #15 ), #92, .T. ) ;
#115 = AXIS2_PLACEMENT_3D ( 'NONE', #168, #148, #230 ) ;
#116 = ORIENTED_EDGE ( 'NONE', *, *, #108, .T. ) ;
#117 = VERTEX_POINT ( 'NONE', #22 ) ;
#118 =( NAMED_UNIT ( * ) SI_UNIT ( $, .STERADIAN. ) SOLID_ANGLE_UNIT ( ) );
#119 = CARTESIAN_POINT ( 'NONE',  ( 2.793185071074506684E-13, -7.225416114969383207E-15, 80.00000000000000000 ) ) ;
#120 = CARTESIAN_POINT ( 'NONE',  ( 4.683247329332248228E-14, 2.333999999999998298, 13.41335345897622489 ) ) ;
#121 = SECURITY_CLASSIFICATION_LEVEL ( 'unclassified' ) ;
#122 = DATE_AND_TIME ( #23, #166 ) ;
#123 = EDGE_LOOP ( 'NONE', ( #240 ) ) ;
#124 = CIRCLE ( 'NONE', #46, 2.103059892324148361 ) ;
#125 = CARTESIAN_POINT ( 'NONE',  ( 4.683247329332248859E-14, 6.511850317305366557E-15, 13.41335345897622666 ) ) ;
#126 = CC_DESIGN_PERSON_AND_ORGANIZATION_ASSIGNMENT ( #234, #64, ( #192 ) ) ;
#127 = FACE_OUTER_BOUND ( 'NONE', #172, .T. ) ;
#128 = FACE_OUTER_BOUND ( 'NONE', #18, .T. ) ;
#129 = AXIS2_PLACEMENT_3D ( 'NONE', #197, #170, #5 ) ;
#130 = PERSON_AND_ORGANIZATION ( #140, #204 ) ;
#131 = ADVANCED_BREP_SHAPE_REPRESENTATION ( '321370', ( #186, #184, #165 ), #30 ) ;
#132 = DIRECTION ( 'NONE',  ( 3.153425691349006731E-31, 1.000000000000000000, 9.031770143711729009E-17 ) ) ;
#133 = FACE_OUTER_BOUND ( 'NONE', #51, .T. ) ;
#134 = DIRECTION ( 'NONE',  ( -3.153425691349006731E-31, -1.000000000000000000, -9.031770143711729009E-17 ) ) ;
#135 = DIRECTION ( 'NONE',  ( -1.695027565906456229E-30, 1.000000000000000000, -4.854751898711527159E-16 ) ) ;
#136 = ORIENTED_EDGE ( 'NONE', *, *, #52, .T. ) ;
#137 = CALENDAR_DATE ( 2021, 26, 11 ) ;
#138 = LOCAL_TIME ( 11, 3, 6.000000000000000000, #176 ) ;
#139 = DATE_TIME_ROLE ( 'classification_date' ) ;
#140 = PERSON ( 'UNSPECIFIED', 'UNSPECIFIED', 'UNSPECIFIED', ('UNSPECIFIED'), ('UNSPECIFIED'), ('UNSPECIFIED') ) ;
#141 = AXIS2_PLACEMENT_3D ( 'NONE', #205, #39, #42 ) ;
#142 = DESIGN_CONTEXT ( 'detailed design', #109, 'design' ) ;
#143 = ADVANCED_FACE ( 'NONE', ( #218, #127 ), #157, .T. ) ;
#144 = CC_DESIGN_DATE_AND_TIME_ASSIGNMENT ( #7, #139, ( #50 ) ) ;
#145 = DIRECTION ( 'NONE',  ( -3.491481338843133355E-15, 9.031770143711729009E-17, -1.000000000000000000 ) ) ;
#146 = ORIENTED_EDGE ( 'NONE', *, *, #241, .T. ) ;
#147 = FACE_OUTER_BOUND ( 'NONE', #224, .T. ) ;
#148 = DIRECTION ( 'NONE',  ( -3.491481338843133355E-15, 9.031770143711729009E-17, -1.000000000000000000 ) ) ;
#149 = DIRECTION ( 'NONE',  ( -3.491481338843133355E-15, -4.854751898711527159E-16, -1.000000000000000000 ) ) ;
#150 = VERTEX_POINT ( 'NONE', #187 ) ;
#151 = DIRECTION ( 'NONE',  ( 0.0000000000000000000, 0.0000000000000000000, 1.000000000000000000 ) ) ;
#152 = PERSON_AND_ORGANIZATION ( #140, #204 ) ;
#153 = ADVANCED_FACE ( 'NONE', ( #178, #159 ), #103, .T. ) ;
#154 = COORDINATED_UNIVERSAL_TIME_OFFSET ( 1, 0, .AHEAD. ) ;
#155 = PRODUCT_DEFINITION_SHAPE ( 'NONE', 'NONE',  #229 ) ;
#156 = LOCAL_TIME ( 11, 3, 6.000000000000000000, #24 ) ;
#157 = CYLINDRICAL_SURFACE ( 'NONE', #196, 2.333999999999994746 ) ;
#158 = APPROVAL_PERSON_ORGANIZATION ( #238, #110, #171 ) ;
#159 = FACE_BOUND ( 'NONE', #47, .T. ) ;
#160 = APPROVAL ( #8, 'UNSPECIFIED' ) ;
#161 = CIRCLE ( 'NONE', #14, 1.999999999999991784 ) ;
#162 = ORIENTED_EDGE ( 'NONE', *, *, #11, .F. ) ;
#163 = EDGE_LOOP ( 'NONE', ( #226 ) ) ;
#164 = CARTESIAN_POINT ( 'NONE',  ( 1.396592535537252948E-15, 2.333999999999997854, 0.3999999999999999112 ) ) ;
#165 = AXIS2_PLACEMENT_3D ( 'NONE', #80, #151, #20 ) ;
#166 = LOCAL_TIME ( 11, 3, 6.000000000000000000, #154 ) ;
#167 = CYLINDRICAL_SURFACE ( 'NONE', #112, 1.999999999999993561 ) ;
#168 = CARTESIAN_POINT ( 'NONE',  ( 4.683247329332248228E-14, -1.211463252978338997E-15, 13.41335345897622489 ) ) ;
#169 = ADVANCED_FACE ( 'NONE', ( #243, #128 ), #21, .T. ) ;
#170 = DIRECTION ( 'NONE',  ( -3.491481338843133355E-15, 9.031770143711729009E-17, -1.000000000000000000 ) ) ;
#171 = APPROVAL_ROLE ( '' ) ;
#172 = EDGE_LOOP ( 'NONE', ( #162 ) ) ;
#173 = APPROVAL_DATE_TIME ( #65, #110 ) ;
#174 = COORDINATED_UNIVERSAL_TIME_OFFSET ( 1, 0, .AHEAD. ) ;
#175 = DIRECTION ( 'NONE',  ( -3.491481338843133355E-15, -4.854751898711527159E-16, -1.000000000000000000 ) ) ;
#176 = COORDINATED_UNIVERSAL_TIME_OFFSET ( 1, 0, .AHEAD. ) ;
#177 = DIRECTION ( 'NONE',  ( -3.491481338843133355E-15, 9.031770143711729009E-17, -1.000000000000000000 ) ) ;
#178 = FACE_OUTER_BOUND ( 'NONE', #96, .T. ) ;
#179 = CONICAL_SURFACE ( 'NONE', #82, 1.999999999999995337, 0.7853981633974516097 ) ;
#180 = DIRECTION ( 'NONE',  ( 0.0000000000000000000, 1.000000000000000000, 0.0000000000000000000 ) ) ;
#181 = APPROVAL_PERSON_ORGANIZATION ( #191, #48, #212 ) ;
#182 = DIRECTION ( 'NONE',  ( 1.695027565906456229E-30, -1.000000000000000000, 4.854751898711527159E-16 ) ) ;
#183 = ORIENTED_EDGE ( 'NONE', *, *, #198, .T. ) ;
#184 = MANIFOLD_SOLID_BREP ( 'Corps-Déplacer/Copier1[2]', #102 ) ;
#185 = FACE_OUTER_BOUND ( 'NONE', #31, .T. ) ;
#186 = MANIFOLD_SOLID_BREP ( 'Corps-Déplacer/Copier1[1]', #90 ) ;
#187 = CARTESIAN_POINT ( 'NONE',  ( 4.683247329332248228E-14, 2.333999999999998298, 13.41335345897622489 ) ) ;
#188 = DIRECTION ( 'NONE',  ( 3.491481338843133355E-15, -9.031770143711729009E-17, 1.000000000000000000 ) ) ;
#189 = CC_DESIGN_PERSON_AND_ORGANIZATION_ASSIGNMENT ( #233, #61, ( #50 ) ) ;
#190 = DIRECTION ( 'NONE',  ( 0.0000000000000000000, 1.000000000000000000, 0.0000000000000000000 ) ) ;
#191 = PERSON_AND_ORGANIZATION ( #140, #204 ) ;
#192 = PRODUCT_DEFINITION_FORMATION_WITH_SPECIFIED_SOURCE ( 'ANY', '', #91, .NOT_KNOWN. ) ;
#193 = EDGE_LOOP ( 'NONE', ( #183 ) ) ;
#194 = APPROVAL_DATE_TIME ( #122, #160 ) ;
#195 = PERSON_AND_ORGANIZATION_ROLE ( 'creator' ) ;
#196 = AXIS2_PLACEMENT_3D ( 'NONE', #32, #111, #200 ) ;
#197 = CARTESIAN_POINT ( 'NONE',  ( 2.793185071074506684E-13, -7.225416114969383207E-15, 80.00000000000000000 ) ) ;
#198 = EDGE_CURVE ( 'NONE', #150, #150, #232, .T. ) ;
#199 = FACE_OUTER_BOUND ( 'NONE', #123, .T. ) ;
#200 = DIRECTION ( 'NONE',  ( -1.695027565906456930E-30, 1.000000000000000000, -4.854751898711527159E-16 ) ) ;
#201 = LOCAL_TIME ( 11, 3, 6.000000000000000000, #174 ) ;
#202 = FACE_BOUND ( 'NONE', #214, .T. ) ;
#203 = VERTEX_POINT ( 'NONE', #76 ) ;
#204 = ORGANIZATION ( 'UNSPECIFIED', 'UNSPECIFIED', '' ) ;
#205 = CARTESIAN_POINT ( 'NONE',  ( 4.683247329332247596E-14, 6.511850317305363402E-15, 13.41335345897622311 ) ) ;
#206 = PLANE ( 'NONE',  #98 ) ;
#207 = ADVANCED_FACE ( 'NONE', ( #99, #223 ), #167, .T. ) ;
#208 = CC_DESIGN_DATE_AND_TIME_ASSIGNMENT ( #210, #27, ( #229 ) ) ;
#209 = AXIS2_PLACEMENT_3D ( 'NONE', #1, #149, #228 ) ;
#210 = DATE_AND_TIME ( #13, #34 ) ;
#211 = DIRECTION ( 'NONE',  ( -3.491481338843133355E-15, 9.031770143711729009E-17, -1.000000000000000000 ) ) ;
#212 = APPROVAL_ROLE ( '' ) ;
#213 = DIRECTION ( 'NONE',  ( -2.640520917754574072E-30, 1.000000000000000000, -7.432405638289687442E-16 ) ) ;
#214 = EDGE_LOOP ( 'NONE', ( #116 ) ) ;
#215 = ORIENTED_EDGE ( 'NONE', *, *, #59, .T. ) ;
#216 = ADVANCED_FACE ( 'NONE', ( #185 ), #54, .T. ) ;
#217 = APPLICATION_CONTEXT ( 'configuration controlled 3d designs of mechanical parts and assemblies' ) ;
#218 = FACE_OUTER_BOUND ( 'NONE', #63, .T. ) ;
#219 = DIRECTION ( 'NONE',  ( 3.491481338843133355E-15, 4.854751898711527159E-16, 1.000000000000000000 ) ) ;
#220 = DIRECTION ( 'NONE',  ( -3.491481338843133355E-15, 9.031770143711729009E-17, -1.000000000000000000 ) ) ;
#221 = ORIENTED_EDGE ( 'NONE', *, *, #89, .T. ) ;
#222 = CARTESIAN_POINT ( 'NONE',  ( 4.683247329332247596E-14, 2.333999999999998298, 13.41335345897622311 ) ) ;
#223 = FACE_OUTER_BOUND ( 'NONE', #163, .T. ) ;
#224 = EDGE_LOOP ( 'NONE', ( #215 ) ) ;
#225 =( NAMED_UNIT ( * ) PLANE_ANGLE_UNIT ( ) SI_UNIT ( $, .RADIAN. ) );
#226 = ORIENTED_EDGE ( 'NONE', *, *, #52, .F. ) ;
#227 = VERTEX_POINT ( 'NONE', #78 ) ;
#228 = DIRECTION ( 'NONE',  ( -1.695027565906456580E-30, 1.000000000000000000, -4.854751898711527159E-16 ) ) ;
#229 = PRODUCT_DEFINITION ( 'UNKNOWN', '', #192, #142 ) ;
#230 = DIRECTION ( 'NONE',  ( 0.0000000000000000000, 1.000000000000000000, 0.0000000000000000000 ) ) ;
#231 = CARTESIAN_POINT ( 'NONE',  ( 4.885231259955590439E-14, -1.263712492114123682E-15, 13.99185842870425134 ) ) ;
#232 = CIRCLE ( 'NONE', #25, 2.333999999999999631 ) ;
#233 = PERSON_AND_ORGANIZATION ( #140, #204 ) ;
#234 = PERSON_AND_ORGANIZATION ( #140, #204 ) ;
#235 = CIRCLE ( 'NONE', #10, 2.333999999999997854 ) ;
#236 = CC_DESIGN_SECURITY_CLASSIFICATION ( #50, ( #192 ) ) ;
#237 = APPROVAL_DATE_TIME ( #88, #48 ) ;
#238 = PERSON_AND_ORGANIZATION ( #140, #204 ) ;
#239 = CARTESIAN_POINT ( 'NONE',  ( 3.564744490241695485E-30, 4.956621102307388146E-31, 1.020983400536471816E-15 ) ) ;
#240 = ORIENTED_EDGE ( 'NONE', *, *, #241, .F. ) ;
#241 = EDGE_CURVE ( 'NONE', #117, #117, #38, .T. ) ;
#242 = EDGE_LOOP ( 'NONE', ( #146 ) ) ;
#243 = FACE_BOUND ( 'NONE', #26, .T. ) ;
ENDSEC;
END-ISO-10303-21;
