ISO-10303-21;
HEADER;
FILE_DESCRIPTION (( 'STEP AP203' ),
    '1' );
FILE_NAME ('321369.step',
    '2021-11-26T10:03:05',
    ( '' ),
    ( '' ),
    'SwSTEP 2.0',
    'SolidWorks 2019',
    '' );
FILE_SCHEMA (( 'CONFIG_CONTROL_DESIGN' ));
ENDSEC;

DATA;
#1 = PERSON_AND_ORGANIZATION ( #123, #87 ) ;
#2 = APPROVAL_STATUS ( 'not_yet_approved' ) ;
#3 = DIRECTION ( 'NONE',  ( 3.491481338843133355E-15, 4.850039126778744058E-16, 1.000000000000000000 ) ) ;
#4 = CLOSED_SHELL ( 'NONE', ( #138, #119, #65, #101 ) ) ;
#5 = FACE_OUTER_BOUND ( 'NONE', #66, .T. ) ;
#6 = UNCERTAINTY_MEASURE_WITH_UNIT (LENGTH_MEASURE( 1.000000000000000082E-05 ), #34, 'distance_accuracy_value', 'NONE');
#7 = DIRECTION ( 'NONE',  ( -3.491481338843133355E-15, -4.850039126778744058E-16, -1.000000000000000000 ) ) ;
#8 = VERTEX_POINT ( 'NONE', #90 ) ;
#9 = AXIS2_PLACEMENT_3D ( 'NONE', #183, #182, #167 ) ;
#10 = CARTESIAN_POINT ( 'NONE',  ( 3.552817088168978220E-30, 4.935241009656115348E-31, 1.017567256809732298E-15 ) ) ;
#11 = EDGE_CURVE ( 'NONE', #217, #217, #57, .T. ) ;
#12 = PERSON_AND_ORGANIZATION ( #123, #87 ) ;
#13 = DIRECTION ( 'NONE',  ( 0.0000000000000000000, 1.000000000000000000, 0.0000000000000000000 ) ) ;
#14 = CARTESIAN_POINT ( 'NONE',  ( 0.0000000000000000000, 0.0000000000000000000, 0.0000000000000000000 ) ) ;
#15 = APPLICATION_CONTEXT ( 'configuration controlled 3d designs of mechanical parts and assemblies' ) ;
#16 = EDGE_CURVE ( 'NONE', #39, #39, #94, .T. ) ;
#17 = FACE_BOUND ( 'NONE', #210, .T. ) ;
#18 = PLANE ( 'NONE',  #28 ) ;
#19 = SHAPE_DEFINITION_REPRESENTATION ( #241, #59 ) ;
#20 = DATE_AND_TIME ( #67, #50 ) ;
#21 = ADVANCED_FACE ( 'NONE', ( #116 ), #155, .T. ) ;
#22 = AXIS2_PLACEMENT_3D ( 'NONE', #52, #126, #13 ) ;
#23 = APPROVAL_PERSON_ORGANIZATION ( #1, #73, #224 ) ;
#24 = PERSON_AND_ORGANIZATION_ROLE ( 'creator' ) ;
#25 = ORIENTED_EDGE ( 'NONE', *, *, #238, .T. ) ;
#26 = PERSON_AND_ORGANIZATION ( #123, #87 ) ;
#27 = DIRECTION ( 'NONE',  ( -3.491481338843133355E-15, 9.031770143711729009E-17, -1.000000000000000000 ) ) ;
#28 = AXIS2_PLACEMENT_3D ( 'NONE', #40, #186, #104 ) ;
#29 = FACE_OUTER_BOUND ( 'NONE', #214, .T. ) ;
#30 = ORIENTED_EDGE ( 'NONE', *, *, #11, .F. ) ;
#31 = CC_DESIGN_DATE_AND_TIME_ASSIGNMENT ( #64, #242, ( #60 ) ) ;
#32 = AXIS2_PLACEMENT_3D ( 'NONE', #82, #69, #141 ) ;
#33 = DIRECTION ( 'NONE',  ( -3.153425691349006731E-31, -1.000000000000000000, -9.031770143711729009E-17 ) ) ;
#34 =( LENGTH_UNIT ( ) NAMED_UNIT ( * ) SI_UNIT ( .MILLI., .METRE. ) );
#35 = CIRCLE ( 'NONE', #196, 2.328999999999992188 ) ;
#36 = CARTESIAN_POINT ( 'NONE',  ( 4.686271040868525732E-14, -1.212245427216898885E-15, 13.42201371301406887 ) ) ;
#37 = CARTESIAN_POINT ( 'NONE',  ( 2.779219145719134403E-13, -7.189289034394536528E-15, 79.60000000000000853 ) ) ;
#38 = APPLICATION_CONTEXT ( 'configuration controlled 3d designs of mechanical parts and assemblies' ) ;
#39 = VERTEX_POINT ( 'NONE', #56 ) ;
#40 = CARTESIAN_POINT ( 'NONE',  ( 4.686271040868526363E-14, 6.509729166827910158E-15, 13.42201371301407065 ) ) ;
#41 = APPROVAL_DATE_TIME ( #202, #108 ) ;
#42 = AXIS2_PLACEMENT_3D ( 'NONE', #236, #110, #220 ) ;
#43 = ADVANCED_FACE ( 'NONE', ( #142 ), #83, .T. ) ;
#44 = ORIENTED_EDGE ( 'NONE', *, *, #221, .F. ) ;
#45 = PERSON_AND_ORGANIZATION_ROLE ( 'creator' ) ;
#46 = CARTESIAN_POINT ( 'NONE',  ( 4.686271040868526363E-14, 2.328999999999998405, 13.42201371301407065 ) ) ;
#47 = AXIS2_PLACEMENT_3D ( 'NONE', #124, #102, #130 ) ;
#48 = ORIENTED_EDGE ( 'NONE', *, *, #143, .T. ) ;
#49 = CYLINDRICAL_SURFACE ( 'NONE', #47, 1.999999999999993561 ) ;
#50 = LOCAL_TIME ( 11, 3, 5.000000000000000000, #223 ) ;
#51 = ADVANCED_FACE ( 'NONE', ( #232, #103 ), #218, .T. ) ;
#52 = CARTESIAN_POINT ( 'NONE',  ( 4.686271040868525732E-14, -1.212245427216898885E-15, 13.42201371301406887 ) ) ;
#53 = FACE_OUTER_BOUND ( 'NONE', #96, .T. ) ;
#54 = DIRECTION ( 'NONE',  ( -3.491481338843133355E-15, 9.031770143711729009E-17, -1.000000000000000000 ) ) ;
#55 = CARTESIAN_POINT ( 'NONE',  ( 3.552817088168978220E-30, 4.935241009656115348E-31, 1.017567256809732298E-15 ) ) ;
#56 = CARTESIAN_POINT ( 'NONE',  ( 2.779219145719134403E-13, 1.999999999999988010, 79.60000000000000853 ) ) ;
#57 = CIRCLE ( 'NONE', #181, 2.328999999999998849 ) ;
#58 = DIRECTION ( 'NONE',  ( -2.646189704611067068E-30, 1.000000000000000000, -7.448361854773777831E-16 ) ) ;
#59 = ADVANCED_BREP_SHAPE_REPRESENTATION ( '321369', ( #86, #170, #9 ), #176 ) ;
#60 = PRODUCT_DEFINITION ( 'UNKNOWN', '', #98, #122 ) ;
#61 = ORIENTED_EDGE ( 'NONE', *, *, #238, .F. ) ;
#62 = CARTESIAN_POINT ( 'NONE',  ( 4.885231259955590439E-14, 1.999999999999990452, 13.99185842870425134 ) ) ;
#63 = EDGE_LOOP ( 'NONE', ( #179 ) ) ;
#64 = DATE_AND_TIME ( #151, #211 ) ;
#65 = ADVANCED_FACE ( 'NONE', ( #53, #178 ), #113, .T. ) ;
#66 = EDGE_LOOP ( 'NONE', ( #204 ) ) ;
#67 = CALENDAR_DATE ( 2021, 26, 11 ) ;
#68 = AXIS2_PLACEMENT_3D ( 'NONE', #55, #145, #199 ) ;
#69 = DIRECTION ( 'NONE',  ( -3.491481338843133355E-15, -4.850039126778744058E-16, -1.000000000000000000 ) ) ;
#70 = EDGE_LOOP ( 'NONE', ( #30 ) ) ;
#71 = APPROVAL_PERSON_ORGANIZATION ( #12, #108, #75 ) ;
#72 = CARTESIAN_POINT ( 'NONE',  ( 2.779219145719134403E-13, -7.189289034394536528E-15, 79.60000000000000853 ) ) ;
#73 = APPROVAL ( #190, 'UNSPECIFIED' ) ;
#74 = CARTESIAN_POINT ( 'NONE',  ( 0.0000000000000000000, 2.098059892324149356, 0.0000000000000000000 ) ) ;
#75 = APPROVAL_ROLE ( '' ) ;
#76 = AXIS2_PLACEMENT_3D ( 'NONE', #36, #27, #150 ) ;
#77 = ADVANCED_FACE ( 'NONE', ( #17, #136 ), #100, .T. ) ;
#78 = PERSON_AND_ORGANIZATION ( #123, #87 ) ;
#79 = AXIS2_PLACEMENT_3D ( 'NONE', #72, #127, #194 ) ;
#80 = APPROVAL_ROLE ( '' ) ;
#81 = DIRECTION ( 'NONE',  ( -1.693382110380702698E-30, 1.000000000000000000, -4.850039126778744058E-16 ) ) ;
#82 = CARTESIAN_POINT ( 'NONE',  ( -1.776408544084489110E-30, 2.098059892324149356, -5.087836284048661492E-16 ) ) ;
#83 = PLANE ( 'NONE',  #189 ) ;
#84 = EDGE_LOOP ( 'NONE', ( #156 ) ) ;
#85 = PERSON_AND_ORGANIZATION ( #123, #87 ) ;
#86 = MANIFOLD_SOLID_BREP ( 'Corps-Déplacer/Copier1[1]', #157 ) ;
#87 = ORGANIZATION ( 'UNSPECIFIED', 'UNSPECIFIED', '' ) ;
#88 = CARTESIAN_POINT ( 'NONE',  ( 1.396592535537256892E-15, 1.940015650711502603E-16, 0.4000000000000010214 ) ) ;
#89 = CARTESIAN_POINT ( 'NONE',  ( 4.686271040868525732E-14, 2.328999999999998405, 13.42201371301406887 ) ) ;
#90 = CARTESIAN_POINT ( 'NONE',  ( 4.686271040868525732E-14, 2.328999999999998405, 13.42201371301406887 ) ) ;
#91 = AXIS2_PLACEMENT_3D ( 'NONE', #46, #97, #195 ) ;
#92 = DATE_TIME_ROLE ( 'classification_date' ) ;
#93 = PRODUCT_RELATED_PRODUCT_CATEGORY ( 'detail', '', ( #228 ) ) ;
#94 = CIRCLE ( 'NONE', #230, 1.999999999999995337 ) ;
#95 = PERSON_AND_ORGANIZATION ( #123, #87 ) ;
#96 = EDGE_LOOP ( 'NONE', ( #137 ) ) ;
#97 = DIRECTION ( 'NONE',  ( -3.491481338843133355E-15, 9.031770143711729009E-17, -1.000000000000000000 ) ) ;
#98 = PRODUCT_DEFINITION_FORMATION_WITH_SPECIFIED_SOURCE ( 'ANY', '', #228, .NOT_KNOWN. ) ;
#99 = LOCAL_TIME ( 11, 3, 5.000000000000000000, #209 ) ;
#100 = CONICAL_SURFACE ( 'NONE', #76, 2.328999999999999737, 0.5235987755982930425 ) ;
#101 = ADVANCED_FACE ( 'NONE', ( #229 ), #213, .T. ) ;
#102 = DIRECTION ( 'NONE',  ( -3.491481338843133355E-15, 9.031770143711729009E-17, -1.000000000000000000 ) ) ;
#103 = FACE_OUTER_BOUND ( 'NONE', #132, .T. ) ;
#104 = DIRECTION ( 'NONE',  ( 1.693382110380703048E-30, -1.000000000000000000, 4.850039126778744058E-16 ) ) ;
#105 = APPLICATION_PROTOCOL_DEFINITION ( 'international standard', 'config_control_design', 1994, #38 ) ;
#106 = CYLINDRICAL_SURFACE ( 'NONE', #243, 2.328999999999995740 ) ;
#107 = DIRECTION ( 'NONE',  ( -3.491481338843133355E-15, 9.031770143711729009E-17, -1.000000000000000000 ) ) ;
#108 = APPROVAL ( #166, 'UNSPECIFIED' ) ;
#109 = VERTEX_POINT ( 'NONE', #133 ) ;
#110 = DIRECTION ( 'NONE',  ( -3.491481338843133355E-15, 9.031770143711729009E-17, -1.000000000000000000 ) ) ;
#111 = SECURITY_CLASSIFICATION_LEVEL ( 'unclassified' ) ;
#112 = ADVANCED_FACE ( 'NONE', ( #160, #5 ), #49, .T. ) ;
#113 = CONICAL_SURFACE ( 'NONE', #168, 2.098059892324149356, 0.5235987755982979275 ) ;
#114 = COORDINATED_UNIVERSAL_TIME_OFFSET ( 1, 0, .AHEAD. ) ;
#115 = APPROVAL_DATE_TIME ( #140, #231 ) ;
#116 = FACE_OUTER_BOUND ( 'NONE', #193, .T. ) ;
#117 = CALENDAR_DATE ( 2021, 26, 11 ) ;
#118 = CC_DESIGN_APPROVAL ( #108, ( #60 ) ) ;
#119 = ADVANCED_FACE ( 'NONE', ( #198, #184 ), #106, .T. ) ;
#120 = COORDINATED_UNIVERSAL_TIME_OFFSET ( 1, 0, .AHEAD. ) ;
#121 = ORIENTED_EDGE ( 'NONE', *, *, #180, .T. ) ;
#122 = DESIGN_CONTEXT ( 'detailed design', #15, 'design' ) ;
#123 = PERSON ( 'UNSPECIFIED', 'UNSPECIFIED', 'UNSPECIFIED', ('UNSPECIFIED'), ('UNSPECIFIED'), ('UNSPECIFIED') ) ;
#124 = CARTESIAN_POINT ( 'NONE',  ( 0.0000000000000000000, 0.0000000000000000000, 0.0000000000000000000 ) ) ;
#125 = EDGE_LOOP ( 'NONE', ( #121 ) ) ;
#126 = DIRECTION ( 'NONE',  ( -3.491481338843133355E-15, 9.031770143711729009E-17, -1.000000000000000000 ) ) ;
#127 = DIRECTION ( 'NONE',  ( -3.491481338843133355E-15, 9.031770143711729009E-17, -1.000000000000000000 ) ) ;
#128 = CIRCLE ( 'NONE', #68, 2.098059892324149356 ) ;
#129 =( NAMED_UNIT ( * ) SI_UNIT ( $, .STERADIAN. ) SOLID_ANGLE_UNIT ( ) );
#130 = DIRECTION ( 'NONE',  ( 3.153425691349006731E-31, 1.000000000000000000, 9.031770143711729009E-17 ) ) ;
#131 = CC_DESIGN_PERSON_AND_ORGANIZATION_ASSIGNMENT ( #95, #134, ( #98 ) ) ;
#132 = EDGE_LOOP ( 'NONE', ( #177 ) ) ;
#133 = CARTESIAN_POINT ( 'NONE',  ( 2.793185071074506684E-13, 1.599999999999987876, 80.00000000000000000 ) ) ;
#134 = PERSON_AND_ORGANIZATION_ROLE ( 'design_supplier' ) ;
#135 = LOCAL_TIME ( 11, 3, 5.000000000000000000, #114 ) ;
#136 = FACE_OUTER_BOUND ( 'NONE', #237, .T. ) ;
#137 = ORIENTED_EDGE ( 'NONE', *, *, #11, .T. ) ;
#138 = ADVANCED_FACE ( 'NONE', ( #29 ), #18, .T. ) ;
#139 = EDGE_LOOP ( 'NONE', ( #208 ) ) ;
#140 = DATE_AND_TIME ( #226, #135 ) ;
#141 = DIRECTION ( 'NONE',  ( -1.693382110380703048E-30, 1.000000000000000000, -4.850039126778744058E-16 ) ) ;
#142 = FACE_OUTER_BOUND ( 'NONE', #212, .T. ) ;
#143 = EDGE_CURVE ( 'NONE', #188, #188, #225, .T. ) ;
#144 = EDGE_LOOP ( 'NONE', ( #175 ) ) ;
#145 = DIRECTION ( 'NONE',  ( -3.491481338843133355E-15, -4.850039126778744058E-16, -1.000000000000000000 ) ) ;
#146 = CALENDAR_DATE ( 2021, 26, 11 ) ;
#147 = DIRECTION ( 'NONE',  ( -3.491481338843133355E-15, -4.850039126778744058E-16, -1.000000000000000000 ) ) ;
#148 = CC_DESIGN_PERSON_AND_ORGANIZATION_ASSIGNMENT ( #78, #24, ( #98 ) ) ;
#149 = SECURITY_CLASSIFICATION ( '', '', #111 ) ;
#150 = DIRECTION ( 'NONE',  ( 0.0000000000000000000, 1.000000000000000000, 0.0000000000000000000 ) ) ;
#151 = CALENDAR_DATE ( 2021, 26, 11 ) ;
#152 = EDGE_CURVE ( 'NONE', #187, #187, #128, .T. ) ;
#153 = DIRECTION ( 'NONE',  ( 0.0000000000000000000, 1.000000000000000000, 0.0000000000000000000 ) ) ;
#154 = PERSON_AND_ORGANIZATION_ROLE ( 'classification_officer' ) ;
#155 = PLANE ( 'NONE',  #91 ) ;
#156 = ORIENTED_EDGE ( 'NONE', *, *, #152, .F. ) ;
#157 = CLOSED_SHELL ( 'NONE', ( #43, #51, #112, #77, #21 ) ) ;
#158 = AXIS2_PLACEMENT_3D ( 'NONE', #165, #54, #216 ) ;
#159 = CC_DESIGN_PERSON_AND_ORGANIZATION_ASSIGNMENT ( #191, #45, ( #60 ) ) ;
#160 = FACE_OUTER_BOUND ( 'NONE', #63, .T. ) ;
#161 = DIRECTION ( 'NONE',  ( 3.491481338843133355E-15, -9.031770143711729009E-17, 1.000000000000000000 ) ) ;
#162 = CARTESIAN_POINT ( 'NONE',  ( 2.793185071074506684E-13, -7.225416114969383207E-15, 80.00000000000000000 ) ) ;
#163 = APPLICATION_PROTOCOL_DEFINITION ( 'international standard', 'config_control_design', 1994, #15 ) ;
#164 = CIRCLE ( 'NONE', #22, 2.328999999999999737 ) ;
#165 = CARTESIAN_POINT ( 'NONE',  ( 4.885231259955590439E-14, -1.263712492114123682E-15, 13.99185842870425134 ) ) ;
#166 = APPROVAL_STATUS ( 'not_yet_approved' ) ;
#167 = DIRECTION ( 'NONE',  ( 1.000000000000000000, 0.0000000000000000000, 0.0000000000000000000 ) ) ;
#168 = AXIS2_PLACEMENT_3D ( 'NONE', #10, #3, #205 ) ;
#169 = CARTESIAN_POINT ( 'NONE',  ( 1.396592535537253145E-15, 2.328999999999998849, 0.3999999999999999112 ) ) ;
#170 = MANIFOLD_SOLID_BREP ( 'Corps-Déplacer/Copier1[2]', #4 ) ;
#171 = DIRECTION ( 'NONE',  ( -1.653868565381912101E-30, 1.000000000000000000, -4.887987467195277465E-16 ) ) ;
#172 = DATE_AND_TIME ( #117, #99 ) ;
#173 = CC_DESIGN_APPROVAL ( #73, ( #149 ) ) ;
#174 = PERSON_AND_ORGANIZATION ( #123, #87 ) ;
#175 = ORIENTED_EDGE ( 'NONE', *, *, #221, .T. ) ;
#176 =( GEOMETRIC_REPRESENTATION_CONTEXT ( 3 ) GLOBAL_UNCERTAINTY_ASSIGNED_CONTEXT ( ( #6 ) ) GLOBAL_UNIT_ASSIGNED_CONTEXT ( ( #34, #234, #129 ) ) REPRESENTATION_CONTEXT ( 'NONE', 'WORKASPACE' ) );
#177 = ORIENTED_EDGE ( 'NONE', *, *, #16, .F. ) ;
#178 = FACE_BOUND ( 'NONE', #84, .T. ) ;
#179 = ORIENTED_EDGE ( 'NONE', *, *, #16, .T. ) ;
#180 = EDGE_CURVE ( 'NONE', #109, #109, #192, .T. ) ;
#181 = AXIS2_PLACEMENT_3D ( 'NONE', #88, #240, #171 ) ;
#182 = DIRECTION ( 'NONE',  ( 0.0000000000000000000, 0.0000000000000000000, 1.000000000000000000 ) ) ;
#183 = CARTESIAN_POINT ( 'NONE',  ( 0.0000000000000000000, 0.0000000000000000000, 0.0000000000000000000 ) ) ;
#184 = FACE_OUTER_BOUND ( 'NONE', #70, .T. ) ;
#185 = PERSON_AND_ORGANIZATION_ROLE ( 'design_owner' ) ;
#186 = DIRECTION ( 'NONE',  ( 3.491481338843133355E-15, 4.850039126778744058E-16, 1.000000000000000000 ) ) ;
#187 = VERTEX_POINT ( 'NONE', #74 ) ;
#188 = VERTEX_POINT ( 'NONE', #62 ) ;
#189 = AXIS2_PLACEMENT_3D ( 'NONE', #162, #161, #33 ) ;
#190 = APPROVAL_STATUS ( 'not_yet_approved' ) ;
#191 = PERSON_AND_ORGANIZATION ( #123, #87 ) ;
#192 = CIRCLE ( 'NONE', #42, 1.599999999999994982 ) ;
#193 = EDGE_LOOP ( 'NONE', ( #25 ) ) ;
#194 = DIRECTION ( 'NONE',  ( 0.0000000000000000000, 1.000000000000000000, 0.0000000000000000000 ) ) ;
#195 = DIRECTION ( 'NONE',  ( 3.153425691349006731E-31, 1.000000000000000000, 9.031770143711729009E-17 ) ) ;
#196 = AXIS2_PLACEMENT_3D ( 'NONE', #215, #7, #58 ) ;
#197 = VERTEX_POINT ( 'NONE', #89 ) ;
#198 = FACE_OUTER_BOUND ( 'NONE', #144, .T. ) ;
#199 = DIRECTION ( 'NONE',  ( -1.693382110380702698E-30, 1.000000000000000000, -4.850039126778744058E-16 ) ) ;
#200 = CC_DESIGN_SECURITY_CLASSIFICATION ( #149, ( #98 ) ) ;
#201 = CC_DESIGN_PERSON_AND_ORGANIZATION_ASSIGNMENT ( #85, #185, ( #228 ) ) ;
#202 = DATE_AND_TIME ( #146, #206 ) ;
#203 = MECHANICAL_CONTEXT ( 'NONE', #38, 'mechanical' ) ;
#204 = ORIENTED_EDGE ( 'NONE', *, *, #143, .F. ) ;
#205 = DIRECTION ( 'NONE',  ( 1.693382110380702698E-30, -1.000000000000000000, 4.850039126778744058E-16 ) ) ;
#206 = LOCAL_TIME ( 11, 3, 5.000000000000000000, #219 ) ;
#207 = APPROVAL_DATE_TIME ( #20, #73 ) ;
#208 = ORIENTED_EDGE ( 'NONE', *, *, #152, .T. ) ;
#209 = COORDINATED_UNIVERSAL_TIME_OFFSET ( 1, 0, .AHEAD. ) ;
#210 = EDGE_LOOP ( 'NONE', ( #48 ) ) ;
#211 = LOCAL_TIME ( 11, 3, 5.000000000000000000, #120 ) ;
#212 = EDGE_LOOP ( 'NONE', ( #227 ) ) ;
#213 = PLANE ( 'NONE',  #32 ) ;
#214 = EDGE_LOOP ( 'NONE', ( #44 ) ) ;
#215 = CARTESIAN_POINT ( 'NONE',  ( 4.686271040868526363E-14, 6.509729166827909369E-15, 13.42201371301407065 ) ) ;
#216 = DIRECTION ( 'NONE',  ( 0.0000000000000000000, 1.000000000000000000, 0.0000000000000000000 ) ) ;
#217 = VERTEX_POINT ( 'NONE', #169 ) ;
#218 = CONICAL_SURFACE ( 'NONE', #79, 1.999999999999995337, 0.7853981633974516097 ) ;
#219 = COORDINATED_UNIVERSAL_TIME_OFFSET ( 1, 0, .AHEAD. ) ;
#220 = DIRECTION ( 'NONE',  ( 0.0000000000000000000, 1.000000000000000000, 0.0000000000000000000 ) ) ;
#221 = EDGE_CURVE ( 'NONE', #8, #8, #35, .T. ) ;
#222 = CC_DESIGN_APPROVAL ( #231, ( #98 ) ) ;
#223 = COORDINATED_UNIVERSAL_TIME_OFFSET ( 1, 0, .AHEAD. ) ;
#224 = APPROVAL_ROLE ( '' ) ;
#225 = CIRCLE ( 'NONE', #158, 1.999999999999991784 ) ;
#226 = CALENDAR_DATE ( 2021, 26, 11 ) ;
#227 = ORIENTED_EDGE ( 'NONE', *, *, #180, .F. ) ;
#228 = PRODUCT ( '321369', '321369', '', ( #203 ) ) ;
#229 = FACE_OUTER_BOUND ( 'NONE', #139, .T. ) ;
#230 = AXIS2_PLACEMENT_3D ( 'NONE', #37, #107, #153 ) ;
#231 = APPROVAL ( #2, 'UNSPECIFIED' ) ;
#232 = FACE_BOUND ( 'NONE', #125, .T. ) ;
#233 = CC_DESIGN_DATE_AND_TIME_ASSIGNMENT ( #172, #92, ( #149 ) ) ;
#234 =( NAMED_UNIT ( * ) PLANE_ANGLE_UNIT ( ) SI_UNIT ( $, .RADIAN. ) );
#235 = APPROVAL_PERSON_ORGANIZATION ( #26, #231, #80 ) ;
#236 = CARTESIAN_POINT ( 'NONE',  ( 2.793185071074506684E-13, -7.225416114969383207E-15, 80.00000000000000000 ) ) ;
#237 = EDGE_LOOP ( 'NONE', ( #61 ) ) ;
#238 = EDGE_CURVE ( 'NONE', #197, #197, #164, .T. ) ;
#239 = CC_DESIGN_PERSON_AND_ORGANIZATION_ASSIGNMENT ( #174, #154, ( #149 ) ) ;
#240 = DIRECTION ( 'NONE',  ( -3.491481338843133355E-15, -4.850039126778744058E-16, -1.000000000000000000 ) ) ;
#241 = PRODUCT_DEFINITION_SHAPE ( 'NONE', 'NONE',  #60 ) ;
#242 = DATE_TIME_ROLE ( 'creation_date' ) ;
#243 = AXIS2_PLACEMENT_3D ( 'NONE', #14, #147, #81 ) ;
ENDSEC;
END-ISO-10303-21;
