ISO-10303-21;
HEADER;
FILE_DESCRIPTION (( 'STEP AP203' ),
    '1' );
FILE_NAME ('321368.step',
    '2021-11-26T10:03:05',
    ( '' ),
    ( '' ),
    'SwSTEP 2.0',
    'SolidWorks 2019',
    '' );
FILE_SCHEMA (( 'CONFIG_CONTROL_DESIGN' ));
ENDSEC;

DATA;
#1 = FACE_OUTER_BOUND ( 'NONE', #107, .T. ) ;
#2 = CC_DESIGN_APPROVAL ( #155, ( #201 ) ) ;
#3 = PERSON_AND_ORGANIZATION ( #91, #215 ) ;
#4 = CALENDAR_DATE ( 2021, 26, 11 ) ;
#5 = VERTEX_POINT ( 'NONE', #46 ) ;
#6 = CC_DESIGN_PERSON_AND_ORGANIZATION_ASSIGNMENT ( #43, #154, ( #201 ) ) ;
#7 = LOCAL_TIME ( 11, 3, 5.000000000000000000, #197 ) ;
#8 = SECURITY_CLASSIFICATION_LEVEL ( 'unclassified' ) ;
#9 = ORIENTED_EDGE ( 'NONE', *, *, #121, .T. ) ;
#10 = ORIENTED_EDGE ( 'NONE', *, *, #121, .F. ) ;
#11 = ADVANCED_FACE ( 'NONE', ( #87, #182 ), #16, .T. ) ;
#12 = AXIS2_PLACEMENT_3D ( 'NONE', #208, #113, #187 ) ;
#13 = EDGE_LOOP ( 'NONE', ( #199 ) ) ;
#14 = DIRECTION ( 'NONE',  ( -3.491481338843133355E-15, 9.031770143711729009E-17, -1.000000000000000000 ) ) ;
#15 = MANIFOLD_SOLID_BREP ( 'Corps-Déplacer/Copier1[1]', #138 ) ;
#16 = CYLINDRICAL_SURFACE ( 'NONE', #158, 1.999999999999993561 ) ;
#17 = AXIS2_PLACEMENT_3D ( 'NONE', #148, #20, #21 ) ;
#18 = CARTESIAN_POINT ( 'NONE',  ( 4.689294752404803867E-14, 2.323999999999998067, 13.43067396705191463 ) ) ;
#19 = FACE_BOUND ( 'NONE', #133, .T. ) ;
#20 = DIRECTION ( 'NONE',  ( -3.491481338843133355E-15, 9.031770143711729009E-17, -1.000000000000000000 ) ) ;
#21 = DIRECTION ( 'NONE',  ( 0.0000000000000000000, 1.000000000000000000, 0.0000000000000000000 ) ) ;
#22 = MECHANICAL_CONTEXT ( 'NONE', #106, 'mechanical' ) ;
#23 = VERTEX_POINT ( 'NONE', #159 ) ;
#24 = LOCAL_TIME ( 11, 3, 5.000000000000000000, #104 ) ;
#25 = CALENDAR_DATE ( 2021, 26, 11 ) ;
#26 = EDGE_CURVE ( 'NONE', #139, #139, #165, .T. ) ;
#27 = APPROVAL_STATUS ( 'not_yet_approved' ) ;
#28 = CC_DESIGN_PERSON_AND_ORGANIZATION_ASSIGNMENT ( #195, #179, ( #89 ) ) ;
#29 = APPROVAL_DATE_TIME ( #105, #188 ) ;
#30 = EDGE_LOOP ( 'NONE', ( #10 ) ) ;
#31 = EDGE_CURVE ( 'NONE', #117, #117, #156, .T. ) ;
#32 = PERSON_AND_ORGANIZATION ( #91, #215 ) ;
#33 = DIRECTION ( 'NONE',  ( 0.0000000000000000000, 1.000000000000000000, 0.0000000000000000000 ) ) ;
#34 = APPROVAL_PERSON_ORGANIZATION ( #102, #155, #82 ) ;
#35 = DIRECTION ( 'NONE',  ( -3.491481338843133355E-15, 9.031770143711729009E-17, -1.000000000000000000 ) ) ;
#36 = FACE_OUTER_BOUND ( 'NONE', #204, .T. ) ;
#37 = DIRECTION ( 'NONE',  ( -3.491481338843133355E-15, 9.031770143711729009E-17, -1.000000000000000000 ) ) ;
#38 = ADVANCED_FACE ( 'NONE', ( #217 ), #54, .T. ) ;
#39 = DIRECTION ( 'NONE',  ( -3.491481338843133355E-15, -4.845332432545756440E-16, -1.000000000000000000 ) ) ;
#40 = CARTESIAN_POINT ( 'NONE',  ( 4.689294752404803867E-14, 2.323999999999998067, 13.43067396705191463 ) ) ;
#41 = AXIS2_PLACEMENT_3D ( 'NONE', #236, #50, #33 ) ;
#42 =( NAMED_UNIT ( * ) SI_UNIT ( $, .STERADIAN. ) SOLID_ANGLE_UNIT ( ) );
#43 = PERSON_AND_ORGANIZATION ( #91, #215 ) ;
#44 = APPROVAL_ROLE ( '' ) ;
#45 = ADVANCED_BREP_SHAPE_REPRESENTATION ( '321368', ( #15, #178, #84 ), #193 ) ;
#46 = CARTESIAN_POINT ( 'NONE',  ( 0.0000000000000000000, 2.093059892324147686, 0.0000000000000000000 ) ) ;
#47 = PERSON_AND_ORGANIZATION_ROLE ( 'classification_officer' ) ;
#48 = AXIS2_PLACEMENT_3D ( 'NONE', #205, #98, #167 ) ;
#49 = ORIENTED_EDGE ( 'NONE', *, *, #125, .F. ) ;
#50 = DIRECTION ( 'NONE',  ( -3.491481338843133355E-15, 9.031770143711729009E-17, -1.000000000000000000 ) ) ;
#51 = DATE_AND_TIME ( #161, #7 ) ;
#52 = ADVANCED_FACE ( 'NONE', ( #168, #243 ), #94, .T. ) ;
#53 = CC_DESIGN_APPROVAL ( #238, ( #99 ) ) ;
#54 = PLANE ( 'NONE',  #65 ) ;
#55 = FACE_OUTER_BOUND ( 'NONE', #132, .T. ) ;
#56 = AXIS2_PLACEMENT_3D ( 'NONE', #240, #134, #135 ) ;
#57 = FACE_OUTER_BOUND ( 'NONE', #233, .T. ) ;
#58 = DIRECTION ( 'NONE',  ( -3.491481338843133355E-15, -4.845332432545756440E-16, -1.000000000000000000 ) ) ;
#59 = DIRECTION ( 'NONE',  ( 3.491481338843133355E-15, 4.845332432545756440E-16, 1.000000000000000000 ) ) ;
#60 = FACE_OUTER_BOUND ( 'NONE', #160, .T. ) ;
#61 = LOCAL_TIME ( 11, 3, 5.000000000000000000, #124 ) ;
#62 =( LENGTH_UNIT ( ) NAMED_UNIT ( * ) SI_UNIT ( .MILLI., .METRE. ) );
#63 = PERSON_AND_ORGANIZATION_ROLE ( 'design_owner' ) ;
#64 = PERSON_AND_ORGANIZATION ( #91, #215 ) ;
#65 = AXIS2_PLACEMENT_3D ( 'NONE', #203, #35, #186 ) ;
#66 = COORDINATED_UNIVERSAL_TIME_OFFSET ( 1, 0, .AHEAD. ) ;
#67 = PERSON_AND_ORGANIZATION_ROLE ( 'creator' ) ;
#68 = CARTESIAN_POINT ( 'NONE',  ( 0.0000000000000000000, 0.0000000000000000000, 0.0000000000000000000 ) ) ;
#69 = ORIENTED_EDGE ( 'NONE', *, *, #78, .T. ) ;
#70 = PERSON_AND_ORGANIZATION ( #91, #215 ) ;
#71 = EDGE_LOOP ( 'NONE', ( #49 ) ) ;
#72 = DIRECTION ( 'NONE',  ( 0.0000000000000000000, 1.000000000000000000, 0.0000000000000000000 ) ) ;
#73 = EDGE_LOOP ( 'NONE', ( #216 ) ) ;
#74 = EDGE_CURVE ( 'NONE', #183, #183, #226, .T. ) ;
#75 = DIRECTION ( 'NONE',  ( -2.651882883837855998E-30, 1.000000000000000000, -7.464386729676477875E-16 ) ) ;
#76 = FACE_BOUND ( 'NONE', #30, .T. ) ;
#77 = FACE_OUTER_BOUND ( 'NONE', #90, .T. ) ;
#78 = EDGE_CURVE ( 'NONE', #122, #122, #162, .T. ) ;
#79 = PLANE ( 'NONE',  #202 ) ;
#80 = AXIS2_PLACEMENT_3D ( 'NONE', #222, #59, #114 ) ;
#81 = DATE_AND_TIME ( #4, #24 ) ;
#82 = APPROVAL_ROLE ( '' ) ;
#83 = CIRCLE ( 'NONE', #48, 1.999999999999991784 ) ;
#84 = AXIS2_PLACEMENT_3D ( 'NONE', #68, #119, #140 ) ;
#85 = DATE_AND_TIME ( #25, #227 ) ;
#86 = ADVANCED_FACE ( 'NONE', ( #19, #36 ), #88, .T. ) ;
#87 = FACE_OUTER_BOUND ( 'NONE', #109, .T. ) ;
#88 = CONICAL_SURFACE ( 'NONE', #123, 2.323999999999999400, 0.5235987755982927094 ) ;
#89 = PRODUCT_DEFINITION_FORMATION_WITH_SPECIFIED_SOURCE ( 'ANY', '', #214, .NOT_KNOWN. ) ;
#90 = EDGE_LOOP ( 'NONE', ( #93 ) ) ;
#91 = PERSON ( 'UNSPECIFIED', 'UNSPECIFIED', 'UNSPECIFIED', ('UNSPECIFIED'), ('UNSPECIFIED'), ('UNSPECIFIED') ) ;
#92 = ORIENTED_EDGE ( 'NONE', *, *, #31, .F. ) ;
#93 = ORIENTED_EDGE ( 'NONE', *, *, #74, .T. ) ;
#94 = CONICAL_SURFACE ( 'NONE', #56, 1.999999999999995337, 0.7853981633974516097 ) ;
#95 = DIRECTION ( 'NONE',  ( -3.491481338843133355E-15, -4.845332432545756440E-16, -1.000000000000000000 ) ) ;
#96 = CYLINDRICAL_SURFACE ( 'NONE', #184, 2.323999999999994515 ) ;
#97 = CIRCLE ( 'NONE', #231, 2.323999999999997623 ) ;
#98 = DIRECTION ( 'NONE',  ( -3.491481338843133355E-15, 9.031770143711729009E-17, -1.000000000000000000 ) ) ;
#99 = SECURITY_CLASSIFICATION ( '', '', #8 ) ;
#100 = CARTESIAN_POINT ( 'NONE',  ( 4.689294752404803867E-14, -1.213027601455458576E-15, 13.43067396705191463 ) ) ;
#101 = CARTESIAN_POINT ( 'NONE',  ( 2.779219145719134403E-13, 1.999999999999988010, 79.60000000000000853 ) ) ;
#102 = PERSON_AND_ORGANIZATION ( #91, #215 ) ;
#103 = APPROVAL_DATE_TIME ( #210, #238 ) ;
#104 = COORDINATED_UNIVERSAL_TIME_OFFSET ( 1, 0, .AHEAD. ) ;
#105 = DATE_AND_TIME ( #194, #61 ) ;
#106 = APPLICATION_CONTEXT ( 'configuration controlled 3d designs of mechanical parts and assemblies' ) ;
#107 = EDGE_LOOP ( 'NONE', ( #141 ) ) ;
#108 = ORIENTED_EDGE ( 'NONE', *, *, #125, .T. ) ;
#109 = EDGE_LOOP ( 'NONE', ( #69 ) ) ;
#110 = CARTESIAN_POINT ( 'NONE',  ( 2.793185071074506684E-13, 1.599999999999987876, 80.00000000000000000 ) ) ;
#111 = APPROVAL_PERSON_ORGANIZATION ( #70, #238, #126 ) ;
#112 = DIRECTION ( 'NONE',  ( -1.657426802398655532E-30, 1.000000000000000000, -4.898503791350175602E-16 ) ) ;
#113 = DIRECTION ( 'NONE',  ( -3.491481338843133355E-15, -4.845332432545756440E-16, -1.000000000000000000 ) ) ;
#114 = DIRECTION ( 'NONE',  ( 1.691738776872491376E-30, -1.000000000000000000, 4.845332432545756440E-16 ) ) ;
#115 = APPLICATION_CONTEXT ( 'configuration controlled 3d designs of mechanical parts and assemblies' ) ;
#116 = CONICAL_SURFACE ( 'NONE', #80, 2.093059892324147686, 0.5235987755982979275 ) ;
#117 = VERTEX_POINT ( 'NONE', #110 ) ;
#118 = CALENDAR_DATE ( 2021, 26, 11 ) ;
#119 = DIRECTION ( 'NONE',  ( 0.0000000000000000000, 0.0000000000000000000, 1.000000000000000000 ) ) ;
#120 = APPLICATION_PROTOCOL_DEFINITION ( 'international standard', 'config_control_design', 1994, #115 ) ;
#121 = EDGE_CURVE ( 'NONE', #5, #5, #190, .T. ) ;
#122 = VERTEX_POINT ( 'NONE', #101 ) ;
#123 = AXIS2_PLACEMENT_3D ( 'NONE', #100, #37, #137 ) ;
#124 = COORDINATED_UNIVERSAL_TIME_OFFSET ( 1, 0, .AHEAD. ) ;
#125 = EDGE_CURVE ( 'NONE', #157, #157, #83, .T. ) ;
#126 = APPROVAL_ROLE ( '' ) ;
#127 = APPLICATION_PROTOCOL_DEFINITION ( 'international standard', 'config_control_design', 1994, #106 ) ;
#128 = CC_DESIGN_DATE_AND_TIME_ASSIGNMENT ( #51, #180, ( #99 ) ) ;
#129 = AXIS2_PLACEMENT_3D ( 'NONE', #136, #39, #75 ) ;
#130 = CARTESIAN_POINT ( 'NONE',  ( 2.793185071074506684E-13, -7.225416114969383207E-15, 80.00000000000000000 ) ) ;
#131 = DIRECTION ( 'NONE',  ( 3.153425691349006731E-31, 1.000000000000000000, 9.031770143711729009E-17 ) ) ;
#132 = EDGE_LOOP ( 'NONE', ( #9 ) ) ;
#133 = EDGE_LOOP ( 'NONE', ( #108 ) ) ;
#134 = DIRECTION ( 'NONE',  ( -3.491481338843133355E-15, 9.031770143711729009E-17, -1.000000000000000000 ) ) ;
#135 = DIRECTION ( 'NONE',  ( 0.0000000000000000000, 1.000000000000000000, 0.0000000000000000000 ) ) ;
#136 = CARTESIAN_POINT ( 'NONE',  ( 4.689294752404804498E-14, 6.507608016350462436E-15, 13.43067396705191641 ) ) ;
#137 = DIRECTION ( 'NONE',  ( 0.0000000000000000000, 1.000000000000000000, 0.0000000000000000000 ) ) ;
#138 = CLOSED_SHELL ( 'NONE', ( #151, #52, #11, #86, #38 ) ) ;
#139 = VERTEX_POINT ( 'NONE', #40 ) ;
#140 = DIRECTION ( 'NONE',  ( 1.000000000000000000, 0.0000000000000000000, 0.0000000000000000000 ) ) ;
#141 = ORIENTED_EDGE ( 'NONE', *, *, #232, .F. ) ;
#142 = CC_DESIGN_PERSON_AND_ORGANIZATION_ASSIGNMENT ( #3, #63, ( #214 ) ) ;
#143 = ORIENTED_EDGE ( 'NONE', *, *, #26, .F. ) ;
#144 = APPROVAL_STATUS ( 'not_yet_approved' ) ;
#145 = CC_DESIGN_PERSON_AND_ORGANIZATION_ASSIGNMENT ( #176, #67, ( #89 ) ) ;
#146 = ORIENTED_EDGE ( 'NONE', *, *, #74, .F. ) ;
#147 = CARTESIAN_POINT ( 'NONE',  ( 0.0000000000000000000, 0.0000000000000000000, 0.0000000000000000000 ) ) ;
#148 = CARTESIAN_POINT ( 'NONE',  ( 2.779219145719134403E-13, -7.189289034394536528E-15, 79.60000000000000853 ) ) ;
#149 = DIRECTION ( 'NONE',  ( -3.491481338843133355E-15, -4.845332432545756440E-16, -1.000000000000000000 ) ) ;
#150 = DIRECTION ( 'NONE',  ( 3.491481338843133355E-15, -9.031770143711729009E-17, 1.000000000000000000 ) ) ;
#151 = ADVANCED_FACE ( 'NONE', ( #57 ), #79, .T. ) ;
#152 = AXIS2_PLACEMENT_3D ( 'NONE', #207, #206, #242 ) ;
#153 = COORDINATED_UNIVERSAL_TIME_OFFSET ( 1, 0, .AHEAD. ) ;
#154 = PERSON_AND_ORGANIZATION_ROLE ( 'creator' ) ;
#155 = APPROVAL ( #27, 'UNSPECIFIED' ) ;
#156 = CIRCLE ( 'NONE', #177, 1.599999999999994982 ) ;
#157 = VERTEX_POINT ( 'NONE', #229 ) ;
#158 = AXIS2_PLACEMENT_3D ( 'NONE', #164, #14, #131 ) ;
#159 = CARTESIAN_POINT ( 'NONE',  ( 1.396592535537253145E-15, 2.323999999999997623, 0.3999999999999999112 ) ) ;
#160 = EDGE_LOOP ( 'NONE', ( #181 ) ) ;
#161 = CALENDAR_DATE ( 2021, 26, 11 ) ;
#162 = CIRCLE ( 'NONE', #17, 1.999999999999995337 ) ;
#163 = EDGE_LOOP ( 'NONE', ( #146 ) ) ;
#164 = CARTESIAN_POINT ( 'NONE',  ( 0.0000000000000000000, 0.0000000000000000000, 0.0000000000000000000 ) ) ;
#165 = CIRCLE ( 'NONE', #41, 2.323999999999999400 ) ;
#166 = UNCERTAINTY_MEASURE_WITH_UNIT (LENGTH_MEASURE( 1.000000000000000082E-05 ), #62, 'distance_accuracy_value', 'NONE');
#167 = DIRECTION ( 'NONE',  ( 0.0000000000000000000, 1.000000000000000000, 0.0000000000000000000 ) ) ;
#168 = FACE_BOUND ( 'NONE', #73, .T. ) ;
#169 = DIRECTION ( 'NONE',  ( -1.691738776872491376E-30, 1.000000000000000000, -4.845332432545756440E-16 ) ) ;
#170 = CLOSED_SHELL ( 'NONE', ( #173, #228, #241, #196 ) ) ;
#171 = CARTESIAN_POINT ( 'NONE',  ( 2.793185071074506684E-13, -7.225416114969383207E-15, 80.00000000000000000 ) ) ;
#172 = CARTESIAN_POINT ( 'NONE',  ( 3.540910582161321993E-30, 4.913928278412477914E-31, 1.014157097953892250E-15 ) ) ;
#173 = ADVANCED_FACE ( 'NONE', ( #237 ), #189, .T. ) ;
#174 = CC_DESIGN_PERSON_AND_ORGANIZATION_ASSIGNMENT ( #32, #47, ( #99 ) ) ;
#175 = LOCAL_TIME ( 11, 3, 5.000000000000000000, #66 ) ;
#176 = PERSON_AND_ORGANIZATION ( #91, #215 ) ;
#177 = AXIS2_PLACEMENT_3D ( 'NONE', #130, #200, #72 ) ;
#178 = MANIFOLD_SOLID_BREP ( 'Corps-Déplacer/Copier1[2]', #170 ) ;
#179 = PERSON_AND_ORGANIZATION_ROLE ( 'design_supplier' ) ;
#180 = DATE_TIME_ROLE ( 'classification_date' ) ;
#181 = ORIENTED_EDGE ( 'NONE', *, *, #232, .T. ) ;
#182 = FACE_OUTER_BOUND ( 'NONE', #71, .T. ) ;
#183 = VERTEX_POINT ( 'NONE', #18 ) ;
#184 = AXIS2_PLACEMENT_3D ( 'NONE', #147, #58, #169 ) ;
#185 = PRODUCT_DEFINITION_SHAPE ( 'NONE', 'NONE',  #201 ) ;
#186 = DIRECTION ( 'NONE',  ( 3.153425691349006731E-31, 1.000000000000000000, 9.031770143711729009E-17 ) ) ;
#187 = DIRECTION ( 'NONE',  ( -1.691738776872491376E-30, 1.000000000000000000, -4.845332432545756440E-16 ) ) ;
#188 = APPROVAL ( #213, 'UNSPECIFIED' ) ;
#189 = PLANE ( 'NONE',  #152 ) ;
#190 = CIRCLE ( 'NONE', #220, 2.093059892324147686 ) ;
#191 = PLANE ( 'NONE',  #12 ) ;
#192 = SHAPE_DEFINITION_REPRESENTATION ( #185, #45 ) ;
#193 =( GEOMETRIC_REPRESENTATION_CONTEXT ( 3 ) GLOBAL_UNCERTAINTY_ASSIGNED_CONTEXT ( ( #166 ) ) GLOBAL_UNIT_ASSIGNED_CONTEXT ( ( #62, #209, #42 ) ) REPRESENTATION_CONTEXT ( 'NONE', 'WORKASPACE' ) );
#194 = CALENDAR_DATE ( 2021, 26, 11 ) ;
#195 = PERSON_AND_ORGANIZATION ( #91, #215 ) ;
#196 = ADVANCED_FACE ( 'NONE', ( #55 ), #191, .T. ) ;
#197 = COORDINATED_UNIVERSAL_TIME_OFFSET ( 1, 0, .AHEAD. ) ;
#198 = PRODUCT_RELATED_PRODUCT_CATEGORY ( 'detail', '', ( #214 ) ) ;
#199 = ORIENTED_EDGE ( 'NONE', *, *, #78, .F. ) ;
#200 = DIRECTION ( 'NONE',  ( -3.491481338843133355E-15, 9.031770143711729009E-17, -1.000000000000000000 ) ) ;
#201 = PRODUCT_DEFINITION ( 'UNKNOWN', '', #89, #239 ) ;
#202 = AXIS2_PLACEMENT_3D ( 'NONE', #171, #150, #224 ) ;
#203 = CARTESIAN_POINT ( 'NONE',  ( 4.689294752404803867E-14, 2.323999999999998067, 13.43067396705191463 ) ) ;
#204 = EDGE_LOOP ( 'NONE', ( #143 ) ) ;
#205 = CARTESIAN_POINT ( 'NONE',  ( 4.885231259955590439E-14, -1.263712492114123682E-15, 13.99185842870425134 ) ) ;
#206 = DIRECTION ( 'NONE',  ( 3.491481338843133355E-15, 4.845332432545756440E-16, 1.000000000000000000 ) ) ;
#207 = CARTESIAN_POINT ( 'NONE',  ( 4.689294752404803867E-14, 6.507608016350462436E-15, 13.43067396705191463 ) ) ;
#208 = CARTESIAN_POINT ( 'NONE',  ( -1.770455291080660997E-30, 2.093059892324147686, -5.070785489769461248E-16 ) ) ;
#209 =( NAMED_UNIT ( * ) PLANE_ANGLE_UNIT ( ) SI_UNIT ( $, .RADIAN. ) );
#210 = DATE_AND_TIME ( #118, #175 ) ;
#211 = APPROVAL_DATE_TIME ( #85, #155 ) ;
#212 = CC_DESIGN_APPROVAL ( #188, ( #89 ) ) ;
#213 = APPROVAL_STATUS ( 'not_yet_approved' ) ;
#214 = PRODUCT ( '321368', '321368', '', ( #22 ) ) ;
#215 = ORGANIZATION ( 'UNSPECIFIED', 'UNSPECIFIED', '' ) ;
#216 = ORIENTED_EDGE ( 'NONE', *, *, #31, .T. ) ;
#217 = FACE_OUTER_BOUND ( 'NONE', #218, .T. ) ;
#218 = EDGE_LOOP ( 'NONE', ( #235 ) ) ;
#219 = DIRECTION ( 'NONE',  ( -1.691738776872491376E-30, 1.000000000000000000, -4.845332432545756440E-16 ) ) ;
#220 = AXIS2_PLACEMENT_3D ( 'NONE', #172, #95, #219 ) ;
#221 = APPROVAL_PERSON_ORGANIZATION ( #64, #188, #44 ) ;
#222 = CARTESIAN_POINT ( 'NONE',  ( 3.540910582161321993E-30, 4.913928278412477914E-31, 1.014157097953892250E-15 ) ) ;
#223 = CC_DESIGN_DATE_AND_TIME_ASSIGNMENT ( #81, #230, ( #201 ) ) ;
#224 = DIRECTION ( 'NONE',  ( -3.153425691349006731E-31, -1.000000000000000000, -9.031770143711729009E-17 ) ) ;
#225 = CARTESIAN_POINT ( 'NONE',  ( 1.396592535537256892E-15, 1.938132973018307802E-16, 0.4000000000000010214 ) ) ;
#226 = CIRCLE ( 'NONE', #129, 2.323999999999991406 ) ;
#227 = LOCAL_TIME ( 11, 3, 5.000000000000000000, #153 ) ;
#228 = ADVANCED_FACE ( 'NONE', ( #77, #1 ), #96, .T. ) ;
#229 = CARTESIAN_POINT ( 'NONE',  ( 4.885231259955590439E-14, 1.999999999999990452, 13.99185842870425134 ) ) ;
#230 = DATE_TIME_ROLE ( 'creation_date' ) ;
#231 = AXIS2_PLACEMENT_3D ( 'NONE', #225, #149, #112 ) ;
#232 = EDGE_CURVE ( 'NONE', #23, #23, #97, .T. ) ;
#233 = EDGE_LOOP ( 'NONE', ( #92 ) ) ;
#234 = CC_DESIGN_SECURITY_CLASSIFICATION ( #99, ( #89 ) ) ;
#235 = ORIENTED_EDGE ( 'NONE', *, *, #26, .T. ) ;
#236 = CARTESIAN_POINT ( 'NONE',  ( 4.689294752404803867E-14, -1.213027601455458576E-15, 13.43067396705191463 ) ) ;
#237 = FACE_OUTER_BOUND ( 'NONE', #163, .T. ) ;
#238 = APPROVAL ( #144, 'UNSPECIFIED' ) ;
#239 = DESIGN_CONTEXT ( 'detailed design', #115, 'design' ) ;
#240 = CARTESIAN_POINT ( 'NONE',  ( 2.779219145719134403E-13, -7.189289034394536528E-15, 79.60000000000000853 ) ) ;
#241 = ADVANCED_FACE ( 'NONE', ( #60, #76 ), #116, .T. ) ;
#242 = DIRECTION ( 'NONE',  ( 1.691738776872491376E-30, -1.000000000000000000, 4.845332432545756440E-16 ) ) ;
#243 = FACE_OUTER_BOUND ( 'NONE', #13, .T. ) ;
ENDSEC;
END-ISO-10303-21;
