ISO-10303-21;
HEADER;
FILE_DESCRIPTION (( 'STEP AP203' ),
    '1' );
FILE_NAME ('321367.step',
    '2021-11-26T10:03:04',
    ( '' ),
    ( '' ),
    'SwSTEP 2.0',
    'SolidWorks 2019',
    '' );
FILE_SCHEMA (( 'CONFIG_CONTROL_DESIGN' ));
ENDSEC;

DATA;
#1 = COORDINATED_UNIVERSAL_TIME_OFFSET ( 1, 0, .AHEAD. ) ;
#2 = EDGE_LOOP ( 'NONE', ( #111 ) ) ;
#3 = APPLICATION_CONTEXT ( 'configuration controlled 3d designs of mechanical parts and assemblies' ) ;
#4 = FACE_OUTER_BOUND ( 'NONE', #224, .T. ) ;
#5 = CIRCLE ( 'NONE', #35, 1.999999999999995337 ) ;
#6 = CC_DESIGN_APPROVAL ( #141, ( #112 ) ) ;
#7 = EDGE_CURVE ( 'NONE', #128, #128, #130, .T. ) ;
#8 = CARTESIAN_POINT ( 'NONE',  ( 4.885231259955590439E-14, -1.263712492114123682E-15, 13.99185842870425134 ) ) ;
#9 = DIRECTION ( 'NONE',  ( 0.0000000000000000000, 1.000000000000000000, 0.0000000000000000000 ) ) ;
#10 = DIRECTION ( 'NONE',  ( -3.491481338843133355E-15, -4.840631804263221664E-16, -1.000000000000000000 ) ) ;
#11 = APPROVAL_PERSON_ORGANIZATION ( #218, #141, #34 ) ;
#12 = MANIFOLD_SOLID_BREP ( 'Corps-Déplacer/Copier1[1]', #19 ) ;
#13 = DIRECTION ( 'NONE',  ( -3.491481338843133355E-15, -4.840631804263221664E-16, -1.000000000000000000 ) ) ;
#14 = PERSON_AND_ORGANIZATION ( #93, #146 ) ;
#15 = VERTEX_POINT ( 'NONE', #129 ) ;
#16 = EDGE_CURVE ( 'NONE', #147, #147, #5, .T. ) ;
#17 = CARTESIAN_POINT ( 'NONE',  ( 4.885231259955590439E-14, 1.999999999999990452, 13.99185842870425134 ) ) ;
#18 = DIRECTION ( 'NONE',  ( -1.690097561279560946E-30, 1.000000000000000000, -4.840631804263221664E-16 ) ) ;
#19 = CLOSED_SHELL ( 'NONE', ( #58, #27, #233, #62, #30 ) ) ;
#20 = EDGE_LOOP ( 'NONE', ( #203 ) ) ;
#21 = ORIENTED_EDGE ( 'NONE', *, *, #209, .T. ) ;
#22 = DIRECTION ( 'NONE',  ( 1.690097561279560595E-30, -1.000000000000000000, 4.840631804263221664E-16 ) ) ;
#23 = CC_DESIGN_APPROVAL ( #24, ( #143 ) ) ;
#24 = APPROVAL ( #118, 'UNSPECIFIED' ) ;
#25 = DIRECTION ( 'NONE',  ( -3.491481338843133355E-15, 9.031770143711729009E-17, -1.000000000000000000 ) ) ;
#26 = CARTESIAN_POINT ( 'NONE',  ( 2.779219145719134403E-13, -7.189289034394536528E-15, 79.60000000000000853 ) ) ;
#27 = ADVANCED_FACE ( 'NONE', ( #63, #231 ), #161, .T. ) ;
#28 = DIRECTION ( 'NONE',  ( -3.491481338843133355E-15, 9.031770143711729009E-17, -1.000000000000000000 ) ) ;
#29 = DIRECTION ( 'NONE',  ( -2.657600613212236736E-30, 1.000000000000000000, -7.480480707101394395E-16 ) ) ;
#30 = ADVANCED_FACE ( 'NONE', ( #232 ), #207, .T. ) ;
#31 = DATE_TIME_ROLE ( 'classification_date' ) ;
#32 =( LENGTH_UNIT ( ) NAMED_UNIT ( * ) SI_UNIT ( .MILLI., .METRE. ) );
#33 = AXIS2_PLACEMENT_3D ( 'NONE', #119, #173, #85 ) ;
#34 = APPROVAL_ROLE ( '' ) ;
#35 = AXIS2_PLACEMENT_3D ( 'NONE', #26, #25, #101 ) ;
#36 = APPROVAL_PERSON_ORGANIZATION ( #66, #24, #192 ) ;
#37 = ORIENTED_EDGE ( 'NONE', *, *, #16, .F. ) ;
#38 = SECURITY_CLASSIFICATION_LEVEL ( 'unclassified' ) ;
#39 = ORIENTED_EDGE ( 'NONE', *, *, #160, .T. ) ;
#40 = CALENDAR_DATE ( 2021, 26, 11 ) ;
#41 = ORIENTED_EDGE ( 'NONE', *, *, #74, .F. ) ;
#42 = EDGE_LOOP ( 'NONE', ( #186 ) ) ;
#43 = DIRECTION ( 'NONE',  ( 0.0000000000000000000, 1.000000000000000000, 0.0000000000000000000 ) ) ;
#44 = CARTESIAN_POINT ( 'NONE',  ( 3.529024931822706341E-30, 4.892682694010622760E-31, 1.010752912399071335E-15 ) ) ;
#45 = DIRECTION ( 'NONE',  ( -1.690097561279560595E-30, 1.000000000000000000, -4.840631804263222650E-16 ) ) ;
#46 = DIRECTION ( 'NONE',  ( -3.491481338843133355E-15, 9.031770143711729009E-17, -1.000000000000000000 ) ) ;
#47 = CARTESIAN_POINT ( 'NONE',  ( 1.396592535537256892E-15, 1.936252721705293744E-16, 0.4000000000000010214 ) ) ;
#48 = AXIS2_PLACEMENT_3D ( 'NONE', #217, #165, #70 ) ;
#49 = PERSON_AND_ORGANIZATION_ROLE ( 'design_owner' ) ;
#50 = FACE_OUTER_BOUND ( 'NONE', #132, .T. ) ;
#51 = CIRCLE ( 'NONE', #33, 1.599999999999994982 ) ;
#52 = FACE_OUTER_BOUND ( 'NONE', #223, .T. ) ;
#53 = CARTESIAN_POINT ( 'NONE',  ( 2.779219145719134403E-13, 1.999999999999988010, 79.60000000000000853 ) ) ;
#54 = PRODUCT ( '321367', '321367', '', ( #200 ) ) ;
#55 = CC_DESIGN_PERSON_AND_ORGANIZATION_ASSIGNMENT ( #110, #239, ( #143 ) ) ;
#56 = PERSON_AND_ORGANIZATION ( #93, #146 ) ;
#57 = CC_DESIGN_SECURITY_CLASSIFICATION ( #143, ( #112 ) ) ;
#58 = ADVANCED_FACE ( 'NONE', ( #155 ), #86, .T. ) ;
#59 = EDGE_LOOP ( 'NONE', ( #41 ) ) ;
#60 = EDGE_LOOP ( 'NONE', ( #221 ) ) ;
#61 = PRODUCT_RELATED_PRODUCT_CATEGORY ( 'detail', '', ( #54 ) ) ;
#62 = ADVANCED_FACE ( 'NONE', ( #172, #67 ), #184, .T. ) ;
#63 = FACE_BOUND ( 'NONE', #42, .T. ) ;
#64 = DIRECTION ( 'NONE',  ( -3.153425691349006731E-31, -1.000000000000000000, -9.031770143711729009E-17 ) ) ;
#65 = CIRCLE ( 'NONE', #188, 2.318999999999998618 ) ;
#66 = PERSON_AND_ORGANIZATION ( #93, #146 ) ;
#67 = FACE_OUTER_BOUND ( 'NONE', #59, .T. ) ;
#68 = CC_DESIGN_PERSON_AND_ORGANIZATION_ASSIGNMENT ( #145, #215, ( #109 ) ) ;
#69 = CARTESIAN_POINT ( 'NONE',  ( 4.692318463941080740E-14, 6.505486865873016292E-15, 13.43933422108975684 ) ) ;
#70 = DIRECTION ( 'NONE',  ( 3.153425691349006731E-31, 1.000000000000000000, 9.031770143711729009E-17 ) ) ;
#71 = CC_DESIGN_PERSON_AND_ORGANIZATION_ASSIGNMENT ( #240, #185, ( #112 ) ) ;
#72 = CARTESIAN_POINT ( 'NONE',  ( 0.0000000000000000000, 0.0000000000000000000, 0.0000000000000000000 ) ) ;
#73 = APPROVAL_DATE_TIME ( #196, #216 ) ;
#74 = EDGE_CURVE ( 'NONE', #15, #15, #157, .T. ) ;
#75 = CYLINDRICAL_SURFACE ( 'NONE', #150, 2.318999999999995065 ) ;
#76 = CALENDAR_DATE ( 2021, 26, 11 ) ;
#77 = EDGE_LOOP ( 'NONE', ( #133 ) ) ;
#78 = AXIS2_PLACEMENT_3D ( 'NONE', #229, #193, #64 ) ;
#79 = LOCAL_TIME ( 11, 3, 4.000000000000000000, #222 ) ;
#80 = EDGE_LOOP ( 'NONE', ( #81 ) ) ;
#81 = ORIENTED_EDGE ( 'NONE', *, *, #209, .F. ) ;
#82 = COORDINATED_UNIVERSAL_TIME_OFFSET ( 1, 0, .AHEAD. ) ;
#83 = AXIS2_PLACEMENT_3D ( 'NONE', #175, #194, #45 ) ;
#84 = FACE_OUTER_BOUND ( 'NONE', #2, .T. ) ;
#85 = DIRECTION ( 'NONE',  ( 0.0000000000000000000, 1.000000000000000000, 0.0000000000000000000 ) ) ;
#86 = PLANE ( 'NONE',  #78 ) ;
#87 = SHAPE_DEFINITION_REPRESENTATION ( #107, #243 ) ;
#88 = DIRECTION ( 'NONE',  ( -1.690097561279560595E-30, 1.000000000000000000, -4.840631804263221664E-16 ) ) ;
#89 = PLANE ( 'NONE',  #166 ) ;
#90 = VERTEX_POINT ( 'NONE', #17 ) ;
#91 = CARTESIAN_POINT ( 'NONE',  ( 0.0000000000000000000, 0.0000000000000000000, 0.0000000000000000000 ) ) ;
#92 = VERTEX_POINT ( 'NONE', #104 ) ;
#93 = PERSON ( 'UNSPECIFIED', 'UNSPECIFIED', 'UNSPECIFIED', ('UNSPECIFIED'), ('UNSPECIFIED'), ('UNSPECIFIED') ) ;
#94 = DIRECTION ( 'NONE',  ( -3.491481338843133355E-15, -4.840631804263221664E-16, -1.000000000000000000 ) ) ;
#95 = AXIS2_PLACEMENT_3D ( 'NONE', #115, #46, #189 ) ;
#96 = EDGE_LOOP ( 'NONE', ( #37 ) ) ;
#97 = EDGE_LOOP ( 'NONE', ( #113 ) ) ;
#98 = CC_DESIGN_APPROVAL ( #216, ( #109 ) ) ;
#99 = DIRECTION ( 'NONE',  ( 3.491481338843133355E-15, 4.840631804263221664E-16, 1.000000000000000000 ) ) ;
#100 = APPLICATION_CONTEXT ( 'configuration controlled 3d designs of mechanical parts and assemblies' ) ;
#101 = DIRECTION ( 'NONE',  ( 0.0000000000000000000, 1.000000000000000000, 0.0000000000000000000 ) ) ;
#102 = DIRECTION ( 'NONE',  ( 0.0000000000000000000, 1.000000000000000000, 0.0000000000000000000 ) ) ;
#103 = FACE_OUTER_BOUND ( 'NONE', #80, .T. ) ;
#104 = CARTESIAN_POINT ( 'NONE',  ( 4.692318463941081372E-14, 2.318999999999998174, 13.43933422108975861 ) ) ;
#105 = ADVANCED_FACE ( 'NONE', ( #103 ), #212, .T. ) ;
#106 = APPROVAL_STATUS ( 'not_yet_approved' ) ;
#107 = PRODUCT_DEFINITION_SHAPE ( 'NONE', 'NONE',  #109 ) ;
#108 = PERSON_AND_ORGANIZATION_ROLE ( 'design_supplier' ) ;
#109 = PRODUCT_DEFINITION ( 'UNKNOWN', '', #112, #125 ) ;
#110 = PERSON_AND_ORGANIZATION ( #93, #146 ) ;
#111 = ORIENTED_EDGE ( 'NONE', *, *, #177, .F. ) ;
#112 = PRODUCT_DEFINITION_FORMATION_WITH_SPECIFIED_SOURCE ( 'ANY', '', #54, .NOT_KNOWN. ) ;
#113 = ORIENTED_EDGE ( 'NONE', *, *, #148, .F. ) ;
#114 = CALENDAR_DATE ( 2021, 26, 11 ) ;
#115 = CARTESIAN_POINT ( 'NONE',  ( 4.692318463941081372E-14, -1.213809775694018069E-15, 13.43933422108975861 ) ) ;
#116 = ADVANCED_FACE ( 'NONE', ( #190, #210 ), #227, .T. ) ;
#117 = CC_DESIGN_PERSON_AND_ORGANIZATION_ASSIGNMENT ( #14, #49, ( #54 ) ) ;
#118 = APPROVAL_STATUS ( 'not_yet_approved' ) ;
#119 = CARTESIAN_POINT ( 'NONE',  ( 2.793185071074506684E-13, -7.225416114969383207E-15, 80.00000000000000000 ) ) ;
#120 = UNCERTAINTY_MEASURE_WITH_UNIT (LENGTH_MEASURE( 1.000000000000000082E-05 ), #32, 'distance_accuracy_value', 'NONE');
#121 = DATE_AND_TIME ( #114, #136 ) ;
#122 = FACE_OUTER_BOUND ( 'NONE', #60, .T. ) ;
#123 = CIRCLE ( 'NONE', #235, 1.999999999999991784 ) ;
#124 = APPLICATION_PROTOCOL_DEFINITION ( 'international standard', 'config_control_design', 1994, #3 ) ;
#125 = DESIGN_CONTEXT ( 'detailed design', #3, 'design' ) ;
#126 = CYLINDRICAL_SURFACE ( 'NONE', #48, 1.999999999999993561 ) ;
#127 = APPROVAL_PERSON_ORGANIZATION ( #181, #216, #144 ) ;
#128 = VERTEX_POINT ( 'NONE', #163 ) ;
#129 = CARTESIAN_POINT ( 'NONE',  ( 4.692318463941081372E-14, 2.318999999999998174, 13.43933422108975861 ) ) ;
#130 = CIRCLE ( 'NONE', #83, 2.088059892324148681 ) ;
#131 = AXIS2_PLACEMENT_3D ( 'NONE', #140, #158, #29 ) ;
#132 = EDGE_LOOP ( 'NONE', ( #134 ) ) ;
#133 = ORIENTED_EDGE ( 'NONE', *, *, #177, .T. ) ;
#134 = ORIENTED_EDGE ( 'NONE', *, *, #160, .F. ) ;
#135 = CC_DESIGN_DATE_AND_TIME_ASSIGNMENT ( #204, #149, ( #109 ) ) ;
#136 = LOCAL_TIME ( 11, 3, 4.000000000000000000, #82 ) ;
#137 = DIRECTION ( 'NONE',  ( -3.491481338843133355E-15, 9.031770143711729009E-17, -1.000000000000000000 ) ) ;
#138 = CARTESIAN_POINT ( 'NONE',  ( 2.779219145719134403E-13, -7.189289034394536528E-15, 79.60000000000000853 ) ) ;
#139 = CARTESIAN_POINT ( 'NONE',  ( 4.692318463941081372E-14, -1.213809775694018069E-15, 13.43933422108975861 ) ) ;
#140 = CARTESIAN_POINT ( 'NONE',  ( 4.692318463941082003E-14, 6.505486865873018658E-15, 13.43933422108976039 ) ) ;
#141 = APPROVAL ( #241, 'UNSPECIFIED' ) ;
#142 = DIRECTION ( 'NONE',  ( 0.0000000000000000000, 0.0000000000000000000, 1.000000000000000000 ) ) ;
#143 = SECURITY_CLASSIFICATION ( '', '', #38 ) ;
#144 = APPROVAL_ROLE ( '' ) ;
#145 = PERSON_AND_ORGANIZATION ( #93, #146 ) ;
#146 = ORGANIZATION ( 'UNSPECIFIED', 'UNSPECIFIED', '' ) ;
#147 = VERTEX_POINT ( 'NONE', #53 ) ;
#148 = EDGE_CURVE ( 'NONE', #180, #180, #51, .T. ) ;
#149 = DATE_TIME_ROLE ( 'creation_date' ) ;
#150 = AXIS2_PLACEMENT_3D ( 'NONE', #91, #94, #18 ) ;
#151 = DATE_AND_TIME ( #40, #199 ) ;
#152 = CIRCLE ( 'NONE', #131, 2.318999999999991513 ) ;
#153 = DIRECTION ( 'NONE',  ( -3.491481338843133355E-15, 9.031770143711729009E-17, -1.000000000000000000 ) ) ;
#154 = CARTESIAN_POINT ( 'NONE',  ( -1.764512465911353171E-30, 2.088059892324148681, -5.053764561995356677E-16 ) ) ;
#155 = FACE_OUTER_BOUND ( 'NONE', #97, .T. ) ;
#156 = AXIS2_PLACEMENT_3D ( 'NONE', #69, #228, #22 ) ;
#157 = CIRCLE ( 'NONE', #95, 2.318999999999999506 ) ;
#158 = DIRECTION ( 'NONE',  ( -3.491481338843133355E-15, -4.840631804263221664E-16, -1.000000000000000000 ) ) ;
#159 = APPLICATION_PROTOCOL_DEFINITION ( 'international standard', 'config_control_design', 1994, #100 ) ;
#160 = EDGE_CURVE ( 'NONE', #90, #90, #123, .T. ) ;
#161 = CONICAL_SURFACE ( 'NONE', #219, 1.999999999999995337, 0.7853981633974516097 ) ;
#162 = CARTESIAN_POINT ( 'NONE',  ( 1.396592535537253145E-15, 2.318999999999998618, 0.3999999999999999112 ) ) ;
#163 = CARTESIAN_POINT ( 'NONE',  ( 6.842277657836020854E-46, 2.088059892324148681, 0.0000000000000000000 ) ) ;
#164 = COORDINATED_UNIVERSAL_TIME_OFFSET ( 1, 0, .AHEAD. ) ;
#165 = DIRECTION ( 'NONE',  ( -3.491481338843133355E-15, 9.031770143711729009E-17, -1.000000000000000000 ) ) ;
#166 = AXIS2_PLACEMENT_3D ( 'NONE', #154, #10, #88 ) ;
#167 = CALENDAR_DATE ( 2021, 26, 11 ) ;
#168 = LOCAL_TIME ( 11, 3, 4.000000000000000000, #164 ) ;
#169 = CC_DESIGN_PERSON_AND_ORGANIZATION_ASSIGNMENT ( #56, #108, ( #112 ) ) ;
#170 = ORIENTED_EDGE ( 'NONE', *, *, #16, .T. ) ;
#171 = EDGE_LOOP ( 'NONE', ( #39 ) ) ;
#172 = FACE_BOUND ( 'NONE', #171, .T. ) ;
#173 = DIRECTION ( 'NONE',  ( -3.491481338843133355E-15, 9.031770143711729009E-17, -1.000000000000000000 ) ) ;
#174 = MANIFOLD_SOLID_BREP ( 'Corps-Déplacer/Copier1[2]', #234 ) ;
#175 = CARTESIAN_POINT ( 'NONE',  ( 3.529024931822706341E-30, 4.892682694010622760E-31, 1.010752912399071335E-15 ) ) ;
#176 = APPROVAL_DATE_TIME ( #121, #24 ) ;
#177 = EDGE_CURVE ( 'NONE', #237, #237, #65, .T. ) ;
#178 = DIRECTION ( 'NONE',  ( -1.661000383257642968E-30, 1.000000000000000000, -4.909065464035275712E-16 ) ) ;
#179 = DIRECTION ( 'NONE',  ( 1.690097561279560245E-30, -1.000000000000000000, 4.840631804263222650E-16 ) ) ;
#180 = VERTEX_POINT ( 'NONE', #201 ) ;
#181 = PERSON_AND_ORGANIZATION ( #93, #146 ) ;
#182 = COORDINATED_UNIVERSAL_TIME_OFFSET ( 1, 0, .AHEAD. ) ;
#183 = ADVANCED_FACE ( 'NONE', ( #122 ), #89, .T. ) ;
#184 = CONICAL_SURFACE ( 'NONE', #214, 2.318999999999999506, 0.5235987755982921543 ) ;
#185 = PERSON_AND_ORGANIZATION_ROLE ( 'creator' ) ;
#186 = ORIENTED_EDGE ( 'NONE', *, *, #148, .T. ) ;
#187 = EDGE_LOOP ( 'NONE', ( #242 ) ) ;
#188 = AXIS2_PLACEMENT_3D ( 'NONE', #47, #13, #178 ) ;
#189 = DIRECTION ( 'NONE',  ( 0.0000000000000000000, 1.000000000000000000, 0.0000000000000000000 ) ) ;
#190 = FACE_OUTER_BOUND ( 'NONE', #77, .T. ) ;
#191 = DIRECTION ( 'NONE',  ( -3.491481338843133355E-15, 9.031770143711729009E-17, -1.000000000000000000 ) ) ;
#192 = APPROVAL_ROLE ( '' ) ;
#193 = DIRECTION ( 'NONE',  ( 3.491481338843133355E-15, -9.031770143711729009E-17, 1.000000000000000000 ) ) ;
#194 = DIRECTION ( 'NONE',  ( -3.491481338843133355E-15, -4.840631804263221664E-16, -1.000000000000000000 ) ) ;
#195 = DATE_AND_TIME ( #76, #79 ) ;
#196 = DATE_AND_TIME ( #238, #168 ) ;
#197 =( NAMED_UNIT ( * ) PLANE_ANGLE_UNIT ( ) SI_UNIT ( $, .RADIAN. ) );
#198 = DIRECTION ( 'NONE',  ( 1.000000000000000000, 0.0000000000000000000, 0.0000000000000000000 ) ) ;
#199 = LOCAL_TIME ( 11, 3, 4.000000000000000000, #1 ) ;
#200 = MECHANICAL_CONTEXT ( 'NONE', #100, 'mechanical' ) ;
#201 = CARTESIAN_POINT ( 'NONE',  ( 2.793185071074506684E-13, 1.599999999999987876, 80.00000000000000000 ) ) ;
#202 = AXIS2_PLACEMENT_3D ( 'NONE', #211, #153, #208 ) ;
#203 = ORIENTED_EDGE ( 'NONE', *, *, #74, .T. ) ;
#204 = DATE_AND_TIME ( #167, #213 ) ;
#205 = AXIS2_PLACEMENT_3D ( 'NONE', #44, #99, #179 ) ;
#206 = CC_DESIGN_DATE_AND_TIME_ASSIGNMENT ( #195, #31, ( #143 ) ) ;
#207 = PLANE ( 'NONE',  #202 ) ;
#208 = DIRECTION ( 'NONE',  ( 3.153425691349006731E-31, 1.000000000000000000, 9.031770143711729009E-17 ) ) ;
#209 = EDGE_CURVE ( 'NONE', #92, #92, #152, .T. ) ;
#210 = FACE_BOUND ( 'NONE', #187, .T. ) ;
#211 = CARTESIAN_POINT ( 'NONE',  ( 4.692318463941080740E-14, 2.318999999999998174, 13.43933422108975684 ) ) ;
#212 = PLANE ( 'NONE',  #156 ) ;
#213 = LOCAL_TIME ( 11, 3, 4.000000000000000000, #182 ) ;
#214 = AXIS2_PLACEMENT_3D ( 'NONE', #139, #28, #43 ) ;
#215 = PERSON_AND_ORGANIZATION_ROLE ( 'creator' ) ;
#216 = APPROVAL ( #106, 'UNSPECIFIED' ) ;
#217 = CARTESIAN_POINT ( 'NONE',  ( 0.0000000000000000000, 0.0000000000000000000, 0.0000000000000000000 ) ) ;
#218 = PERSON_AND_ORGANIZATION ( #93, #146 ) ;
#219 = AXIS2_PLACEMENT_3D ( 'NONE', #138, #137, #9 ) ;
#220 = AXIS2_PLACEMENT_3D ( 'NONE', #72, #142, #198 ) ;
#221 = ORIENTED_EDGE ( 'NONE', *, *, #7, .T. ) ;
#222 = COORDINATED_UNIVERSAL_TIME_OFFSET ( 1, 0, .AHEAD. ) ;
#223 = EDGE_LOOP ( 'NONE', ( #170 ) ) ;
#224 = EDGE_LOOP ( 'NONE', ( #21 ) ) ;
#225 = ADVANCED_FACE ( 'NONE', ( #4, #84 ), #75, .T. ) ;
#226 = APPROVAL_DATE_TIME ( #151, #141 ) ;
#227 = CONICAL_SURFACE ( 'NONE', #205, 2.088059892324148681, 0.5235987755982979275 ) ;
#228 = DIRECTION ( 'NONE',  ( 3.491481338843133355E-15, 4.840631804263221664E-16, 1.000000000000000000 ) ) ;
#229 = CARTESIAN_POINT ( 'NONE',  ( 2.793185071074506684E-13, -7.225416114969383207E-15, 80.00000000000000000 ) ) ;
#230 =( GEOMETRIC_REPRESENTATION_CONTEXT ( 3 ) GLOBAL_UNCERTAINTY_ASSIGNED_CONTEXT ( ( #120 ) ) GLOBAL_UNIT_ASSIGNED_CONTEXT ( ( #32, #197, #236 ) ) REPRESENTATION_CONTEXT ( 'NONE', 'WORKASPACE' ) );
#231 = FACE_OUTER_BOUND ( 'NONE', #96, .T. ) ;
#232 = FACE_OUTER_BOUND ( 'NONE', #20, .T. ) ;
#233 = ADVANCED_FACE ( 'NONE', ( #52, #50 ), #126, .T. ) ;
#234 = CLOSED_SHELL ( 'NONE', ( #105, #225, #116, #183 ) ) ;
#235 = AXIS2_PLACEMENT_3D ( 'NONE', #8, #191, #102 ) ;
#236 =( NAMED_UNIT ( * ) SI_UNIT ( $, .STERADIAN. ) SOLID_ANGLE_UNIT ( ) );
#237 = VERTEX_POINT ( 'NONE', #162 ) ;
#238 = CALENDAR_DATE ( 2021, 26, 11 ) ;
#239 = PERSON_AND_ORGANIZATION_ROLE ( 'classification_officer' ) ;
#240 = PERSON_AND_ORGANIZATION ( #93, #146 ) ;
#241 = APPROVAL_STATUS ( 'not_yet_approved' ) ;
#242 = ORIENTED_EDGE ( 'NONE', *, *, #7, .F. ) ;
#243 = ADVANCED_BREP_SHAPE_REPRESENTATION ( '321367', ( #12, #174, #220 ), #230 ) ;
ENDSEC;
END-ISO-10303-21;
