ISO-10303-21;
HEADER;
FILE_DESCRIPTION (( 'STEP AP203' ),
    '1' );
FILE_NAME ('321366.step',
    '2021-11-26T10:03:04',
    ( '' ),
    ( '' ),
    'SwSTEP 2.0',
    'SolidWorks 2019',
    '' );
FILE_SCHEMA (( 'CONFIG_CONTROL_DESIGN' ));
ENDSEC;

DATA;
#1 = SECURITY_CLASSIFICATION ( '', '', #30 ) ;
#2 = CALENDAR_DATE ( 2021, 26, 11 ) ;
#3 = PERSON_AND_ORGANIZATION ( #50, #124 ) ;
#4 = EDGE_LOOP ( 'NONE', ( #235 ) ) ;
#5 = CALENDAR_DATE ( 2021, 26, 11 ) ;
#6 = CIRCLE ( 'NONE', #181, 2.313999999999992063 ) ;
#7 = ORIENTED_EDGE ( 'NONE', *, *, #110, .F. ) ;
#8 = PERSON_AND_ORGANIZATION ( #50, #124 ) ;
#9 = FACE_OUTER_BOUND ( 'NONE', #195, .T. ) ;
#10 = AXIS2_PLACEMENT_3D ( 'NONE', #13, #94, #91 ) ;
#11 = FACE_OUTER_BOUND ( 'NONE', #125, .T. ) ;
#12 = CC_DESIGN_DATE_AND_TIME_ASSIGNMENT ( #102, #25, ( #89 ) ) ;
#13 = CARTESIAN_POINT ( 'NONE',  ( 1.396592535537256892E-15, 1.934374892084827802E-16, 0.4000000000000010214 ) ) ;
#14 = APPLICATION_CONTEXT ( 'configuration controlled 3d designs of mechanical parts and assemblies' ) ;
#15 = CARTESIAN_POINT ( 'NONE',  ( 4.885231259955590439E-14, -1.263712492114123682E-15, 13.99185842870425134 ) ) ;
#16 = LOCAL_TIME ( 11, 3, 4.000000000000000000, #119 ) ;
#17 = EDGE_LOOP ( 'NONE', ( #109 ) ) ;
#18 = FACE_OUTER_BOUND ( 'NONE', #158, .T. ) ;
#19 = DIRECTION ( 'NONE',  ( -3.491481338843133355E-15, 9.031770143711729009E-17, -1.000000000000000000 ) ) ;
#20 = APPROVAL_PERSON_ORGANIZATION ( #27, #47, #53 ) ;
#21 = CARTESIAN_POINT ( 'NONE',  ( 0.0000000000000000000, 0.0000000000000000000, 0.0000000000000000000 ) ) ;
#22 = ADVANCED_FACE ( 'NONE', ( #161, #221 ), #63, .T. ) ;
#23 = DIRECTION ( 'NONE',  ( -3.491481338843133355E-15, -4.835937230212056808E-16, -1.000000000000000000 ) ) ;
#24 = APPROVAL ( #88, 'UNSPECIFIED' ) ;
#25 = DATE_TIME_ROLE ( 'creation_date' ) ;
#26 = CC_DESIGN_SECURITY_CLASSIFICATION ( #1, ( #82 ) ) ;
#27 = PERSON_AND_ORGANIZATION ( #50, #124 ) ;
#28 = PERSON_AND_ORGANIZATION_ROLE ( 'creator' ) ;
#29 = CIRCLE ( 'NONE', #123, 2.313999999999999613 ) ;
#30 = SECURITY_CLASSIFICATION_LEVEL ( 'unclassified' ) ;
#31 = EDGE_LOOP ( 'NONE', ( #118 ) ) ;
#32 = ADVANCED_BREP_SHAPE_REPRESENTATION ( '321366', ( #166, #167, #145 ), #75 ) ;
#33 = PLANE ( 'NONE',  #138 ) ;
#34 = COORDINATED_UNIVERSAL_TIME_OFFSET ( 1, 0, .AHEAD. ) ;
#35 = FACE_OUTER_BOUND ( 'NONE', #17, .T. ) ;
#36 = CIRCLE ( 'NONE', #152, 1.599999999999994982 ) ;
#37 = APPLICATION_CONTEXT ( 'configuration controlled 3d designs of mechanical parts and assemblies' ) ;
#38 = DIRECTION ( 'NONE',  ( -3.491481338843133355E-15, 9.031770143711729009E-17, -1.000000000000000000 ) ) ;
#39 = FACE_OUTER_BOUND ( 'NONE', #212, .T. ) ;
#40 = ORIENTED_EDGE ( 'NONE', *, *, #171, .F. ) ;
#41 = CIRCLE ( 'NONE', #10, 2.313999999999997836 ) ;
#42 = APPROVAL_ROLE ( '' ) ;
#43 = ADVANCED_FACE ( 'NONE', ( #11 ), #108, .T. ) ;
#44 = VERTEX_POINT ( 'NONE', #98 ) ;
#45 = VERTEX_POINT ( 'NONE', #190 ) ;
#46 = CARTESIAN_POINT ( 'NONE',  ( 3.517160096861144601E-30, 4.871504042654494855E-31, 1.007354688605186668E-15 ) ) ;
#47 = APPROVAL ( #196, 'UNSPECIFIED' ) ;
#48 = APPROVAL_DATE_TIME ( #193, #24 ) ;
#49 = CALENDAR_DATE ( 2021, 26, 11 ) ;
#50 = PERSON ( 'UNSPECIFIED', 'UNSPECIFIED', 'UNSPECIFIED', ('UNSPECIFIED'), ('UNSPECIFIED'), ('UNSPECIFIED') ) ;
#51 = APPROVAL_STATUS ( 'not_yet_approved' ) ;
#52 = PERSON_AND_ORGANIZATION_ROLE ( 'classification_officer' ) ;
#53 = APPROVAL_ROLE ( '' ) ;
#54 = CIRCLE ( 'NONE', #217, 1.999999999999995337 ) ;
#55 = CARTESIAN_POINT ( 'NONE',  ( 4.695342175477357614E-14, -1.214591949932577562E-15, 13.44799447512760260 ) ) ;
#56 = ADVANCED_FACE ( 'NONE', ( #58 ), #144, .T. ) ;
#57 = PRODUCT_DEFINITION_SHAPE ( 'NONE', 'NONE',  #89 ) ;
#58 = FACE_OUTER_BOUND ( 'NONE', #107, .T. ) ;
#59 = DIRECTION ( 'NONE',  ( 3.491481338843133355E-15, 4.835937230212056808E-16, 1.000000000000000000 ) ) ;
#60 = DIRECTION ( 'NONE',  ( -3.491481338843133355E-15, 9.031770143711729009E-17, -1.000000000000000000 ) ) ;
#61 = DIRECTION ( 'NONE',  ( 1.688458459510214830E-30, -1.000000000000000000, 4.835937230212057794E-16 ) ) ;
#62 = CARTESIAN_POINT ( 'NONE',  ( 2.779219145719134403E-13, 1.999999999999988010, 79.60000000000000853 ) ) ;
#63 = CONICAL_SURFACE ( 'NONE', #71, 2.313999999999999613, 0.5235987755982915992 ) ;
#64 = PERSON_AND_ORGANIZATION_ROLE ( 'design_owner' ) ;
#65 = EDGE_CURVE ( 'NONE', #226, #226, #36, .T. ) ;
#66 = FACE_OUTER_BOUND ( 'NONE', #137, .T. ) ;
#67 = DIRECTION ( 'NONE',  ( 1.000000000000000000, 0.0000000000000000000, 0.0000000000000000000 ) ) ;
#68 = DIRECTION ( 'NONE',  ( -3.491481338843133355E-15, 9.031770143711729009E-17, -1.000000000000000000 ) ) ;
#69 = PERSON_AND_ORGANIZATION_ROLE ( 'design_supplier' ) ;
#70 = DATE_AND_TIME ( #5, #238 ) ;
#71 = AXIS2_PLACEMENT_3D ( 'NONE', #55, #92, #239 ) ;
#72 = EDGE_CURVE ( 'NONE', #116, #116, #6, .T. ) ;
#73 = PERSON_AND_ORGANIZATION ( #50, #124 ) ;
#74 = ORIENTED_EDGE ( 'NONE', *, *, #229, .T. ) ;
#75 =( GEOMETRIC_REPRESENTATION_CONTEXT ( 3 ) GLOBAL_UNCERTAINTY_ASSIGNED_CONTEXT ( ( #184 ) ) GLOBAL_UNIT_ASSIGNED_CONTEXT ( ( #183, #132, #242 ) ) REPRESENTATION_CONTEXT ( 'NONE', 'WORKASPACE' ) );
#76 = ADVANCED_FACE ( 'NONE', ( #39, #90 ), #84, .T. ) ;
#77 = CARTESIAN_POINT ( 'NONE',  ( 4.695342175477357614E-14, -1.214591949932577562E-15, 13.44799447512760260 ) ) ;
#78 = DIRECTION ( 'NONE',  ( -1.688458459510214480E-30, 1.000000000000000000, -4.835937230212056808E-16 ) ) ;
#79 = DIRECTION ( 'NONE',  ( -3.491481338843133355E-15, -4.835937230212056808E-16, -1.000000000000000000 ) ) ;
#80 = DIRECTION ( 'NONE',  ( 0.0000000000000000000, 1.000000000000000000, 0.0000000000000000000 ) ) ;
#81 = CARTESIAN_POINT ( 'NONE',  ( 2.779219145719134403E-13, -7.189289034394536528E-15, 79.60000000000000853 ) ) ;
#82 = PRODUCT_DEFINITION_FORMATION_WITH_SPECIFIED_SOURCE ( 'ANY', '', #198, .NOT_KNOWN. ) ;
#83 = CARTESIAN_POINT ( 'NONE',  ( 4.695342175477357614E-14, 2.313999999999998280, 13.44799447512760260 ) ) ;
#84 = CONICAL_SURFACE ( 'NONE', #197, 2.083059892324147899, 0.5235987755982979275 ) ;
#85 = APPROVAL_DATE_TIME ( #157, #47 ) ;
#86 = EDGE_CURVE ( 'NONE', #115, #115, #227, .T. ) ;
#87 = PERSON_AND_ORGANIZATION_ROLE ( 'creator' ) ;
#88 = APPROVAL_STATUS ( 'not_yet_approved' ) ;
#89 = PRODUCT_DEFINITION ( 'UNKNOWN', '', #82, #148 ) ;
#90 = FACE_BOUND ( 'NONE', #231, .T. ) ;
#91 = DIRECTION ( 'NONE',  ( -1.664589407421985980E-30, 1.000000000000000000, -4.919672779212535793E-16 ) ) ;
#92 = DIRECTION ( 'NONE',  ( -3.491481338843133355E-15, 9.031770143711729009E-17, -1.000000000000000000 ) ) ;
#93 = LOCAL_TIME ( 11, 3, 4.000000000000000000, #191 ) ;
#94 = DIRECTION ( 'NONE',  ( -3.491481338843133355E-15, -4.835937230212056808E-16, -1.000000000000000000 ) ) ;
#95 = VERTEX_POINT ( 'NONE', #83 ) ;
#96 = CARTESIAN_POINT ( 'NONE',  ( 4.695342175477357614E-14, 2.313999999999998280, 13.44799447512760260 ) ) ;
#97 = VERTEX_POINT ( 'NONE', #62 ) ;
#98 = CARTESIAN_POINT ( 'NONE',  ( 0.0000000000000000000, 2.083059892324147899, 0.0000000000000000000 ) ) ;
#99 = CARTESIAN_POINT ( 'NONE',  ( 0.0000000000000000000, 0.0000000000000000000, 0.0000000000000000000 ) ) ;
#100 = SHAPE_DEFINITION_REPRESENTATION ( #57, #32 ) ;
#101 = APPROVAL_PERSON_ORGANIZATION ( #8, #24, #42 ) ;
#102 = DATE_AND_TIME ( #172, #93 ) ;
#103 = APPROVAL ( #51, 'UNSPECIFIED' ) ;
#104 = CONICAL_SURFACE ( 'NONE', #163, 1.999999999999995337, 0.7853981633974516097 ) ;
#105 = DATE_AND_TIME ( #136, #224 ) ;
#106 = ORIENTED_EDGE ( 'NONE', *, *, #72, .F. ) ;
#107 = EDGE_LOOP ( 'NONE', ( #106 ) ) ;
#108 = PLANE ( 'NONE',  #233 ) ;
#109 = ORIENTED_EDGE ( 'NONE', *, *, #72, .T. ) ;
#110 = EDGE_CURVE ( 'NONE', #45, #45, #41, .T. ) ;
#111 = ORIENTED_EDGE ( 'NONE', *, *, #171, .T. ) ;
#112 = CARTESIAN_POINT ( 'NONE',  ( 2.793185071074506684E-13, -7.225416114969383207E-15, 80.00000000000000000 ) ) ;
#113 = CC_DESIGN_DATE_AND_TIME_ASSIGNMENT ( #105, #175, ( #1 ) ) ;
#114 = PLANE ( 'NONE',  #189 ) ;
#115 = VERTEX_POINT ( 'NONE', #186 ) ;
#116 = VERTEX_POINT ( 'NONE', #96 ) ;
#117 = CC_DESIGN_PERSON_AND_ORGANIZATION_ASSIGNMENT ( #73, #52, ( #1 ) ) ;
#118 = ORIENTED_EDGE ( 'NONE', *, *, #86, .T. ) ;
#119 = COORDINATED_UNIVERSAL_TIME_OFFSET ( 1, 0, .AHEAD. ) ;
#120 = FACE_OUTER_BOUND ( 'NONE', #232, .T. ) ;
#121 = DIRECTION ( 'NONE',  ( -3.491481338843133355E-15, 9.031770143711729009E-17, -1.000000000000000000 ) ) ;
#122 = EDGE_CURVE ( 'NONE', #95, #95, #29, .T. ) ;
#123 = AXIS2_PLACEMENT_3D ( 'NONE', #77, #164, #80 ) ;
#124 = ORGANIZATION ( 'UNSPECIFIED', 'UNSPECIFIED', '' ) ;
#125 = EDGE_LOOP ( 'NONE', ( #111 ) ) ;
#126 = DIRECTION ( 'NONE',  ( -2.663343051875184014E-30, 1.000000000000000000, -7.496644234990548952E-16 ) ) ;
#127 = ADVANCED_FACE ( 'NONE', ( #120 ), #33, .T. ) ;
#128 = DIRECTION ( 'NONE',  ( -1.688458459510214480E-30, 1.000000000000000000, -4.835937230212056808E-16 ) ) ;
#129 = CC_DESIGN_APPROVAL ( #24, ( #1 ) ) ;
#130 = FACE_BOUND ( 'NONE', #162, .T. ) ;
#131 = DIRECTION ( 'NONE',  ( 3.153425691349006731E-31, 1.000000000000000000, 9.031770143711729009E-17 ) ) ;
#132 =( NAMED_UNIT ( * ) PLANE_ANGLE_UNIT ( ) SI_UNIT ( $, .RADIAN. ) );
#133 = CC_DESIGN_APPROVAL ( #103, ( #89 ) ) ;
#134 = DIRECTION ( 'NONE',  ( -3.491481338843133355E-15, -4.835937230212056808E-16, -1.000000000000000000 ) ) ;
#135 = PERSON_AND_ORGANIZATION ( #50, #124 ) ;
#136 = CALENDAR_DATE ( 2021, 26, 11 ) ;
#137 = EDGE_LOOP ( 'NONE', ( #222 ) ) ;
#138 = AXIS2_PLACEMENT_3D ( 'NONE', #112, #176, #165 ) ;
#139 = ORIENTED_EDGE ( 'NONE', *, *, #65, .F. ) ;
#140 = AXIS2_PLACEMENT_3D ( 'NONE', #141, #59, #147 ) ;
#141 = CARTESIAN_POINT ( 'NONE',  ( 4.695342175477358876E-14, 6.503365715395562259E-15, 13.44799447512760437 ) ) ;
#142 = CARTESIAN_POINT ( 'NONE',  ( 0.0000000000000000000, 0.0000000000000000000, 0.0000000000000000000 ) ) ;
#143 = ADVANCED_FACE ( 'NONE', ( #9, #159 ), #234, .T. ) ;
#144 = PLANE ( 'NONE',  #140 ) ;
#145 = AXIS2_PLACEMENT_3D ( 'NONE', #21, #170, #67 ) ;
#146 = CARTESIAN_POINT ( 'NONE',  ( 2.793185071074506684E-13, -7.225416114969383207E-15, 80.00000000000000000 ) ) ;
#147 = DIRECTION ( 'NONE',  ( 1.688458459510214480E-30, -1.000000000000000000, 4.835937230212056808E-16 ) ) ;
#148 = DESIGN_CONTEXT ( 'detailed design', #14, 'design' ) ;
#149 = MECHANICAL_CONTEXT ( 'NONE', #37, 'mechanical' ) ;
#150 = DIRECTION ( 'NONE',  ( -3.491481338843133355E-15, 9.031770143711729009E-17, -1.000000000000000000 ) ) ;
#151 = APPLICATION_PROTOCOL_DEFINITION ( 'international standard', 'config_control_design', 1994, #37 ) ;
#152 = AXIS2_PLACEMENT_3D ( 'NONE', #146, #60, #202 ) ;
#153 = APPROVAL_ROLE ( '' ) ;
#154 = CC_DESIGN_PERSON_AND_ORGANIZATION_ASSIGNMENT ( #214, #69, ( #82 ) ) ;
#155 = COORDINATED_UNIVERSAL_TIME_OFFSET ( 1, 0, .AHEAD. ) ;
#156 = ORIENTED_EDGE ( 'NONE', *, *, #86, .F. ) ;
#157 = DATE_AND_TIME ( #2, #16 ) ;
#158 = EDGE_LOOP ( 'NONE', ( #182 ) ) ;
#159 = FACE_OUTER_BOUND ( 'NONE', #215, .T. ) ;
#160 = ADVANCED_FACE ( 'NONE', ( #35, #178 ), #243, .T. ) ;
#161 = FACE_BOUND ( 'NONE', #31, .T. ) ;
#162 = EDGE_LOOP ( 'NONE', ( #237 ) ) ;
#163 = AXIS2_PLACEMENT_3D ( 'NONE', #81, #68, #241 ) ;
#164 = DIRECTION ( 'NONE',  ( -3.491481338843133355E-15, 9.031770143711729009E-17, -1.000000000000000000 ) ) ;
#165 = DIRECTION ( 'NONE',  ( -3.153425691349006731E-31, -1.000000000000000000, -9.031770143711729009E-17 ) ) ;
#166 = MANIFOLD_SOLID_BREP ( 'Corps-Déplacer/Copier1[1]', #208 ) ;
#167 = MANIFOLD_SOLID_BREP ( 'Corps-Déplacer/Copier1[2]', #187 ) ;
#168 = DIRECTION ( 'NONE',  ( -1.688458459510214830E-30, 1.000000000000000000, -4.835937230212057794E-16 ) ) ;
#169 = AXIS2_PLACEMENT_3D ( 'NONE', #142, #121, #201 ) ;
#170 = DIRECTION ( 'NONE',  ( 0.0000000000000000000, 0.0000000000000000000, 1.000000000000000000 ) ) ;
#171 = EDGE_CURVE ( 'NONE', #44, #44, #210, .T. ) ;
#172 = CALENDAR_DATE ( 2021, 26, 11 ) ;
#173 = COORDINATED_UNIVERSAL_TIME_OFFSET ( 1, 0, .AHEAD. ) ;
#174 = AXIS2_PLACEMENT_3D ( 'NONE', #99, #23, #128 ) ;
#175 = DATE_TIME_ROLE ( 'classification_date' ) ;
#176 = DIRECTION ( 'NONE',  ( 3.491481338843133355E-15, -9.031770143711729009E-17, 1.000000000000000000 ) ) ;
#177 = LOCAL_TIME ( 11, 3, 4.000000000000000000, #34 ) ;
#178 = FACE_OUTER_BOUND ( 'NONE', #216, .T. ) ;
#179 = CARTESIAN_POINT ( 'NONE',  ( 4.695342175477358245E-14, 6.503365715395562259E-15, 13.44799447512760437 ) ) ;
#180 = ORIENTED_EDGE ( 'NONE', *, *, #110, .T. ) ;
#181 = AXIS2_PLACEMENT_3D ( 'NONE', #179, #203, #126 ) ;
#182 = ORIENTED_EDGE ( 'NONE', *, *, #229, .F. ) ;
#183 =( LENGTH_UNIT ( ) NAMED_UNIT ( * ) SI_UNIT ( .MILLI., .METRE. ) );
#184 = UNCERTAINTY_MEASURE_WITH_UNIT (LENGTH_MEASURE( 1.000000000000000082E-05 ), #183, 'distance_accuracy_value', 'NONE');
#185 = CC_DESIGN_PERSON_AND_ORGANIZATION_ASSIGNMENT ( #225, #64, ( #198 ) ) ;
#186 = CARTESIAN_POINT ( 'NONE',  ( 4.885231259955590439E-14, 1.999999999999990452, 13.99185842870425134 ) ) ;
#187 = CLOSED_SHELL ( 'NONE', ( #56, #160, #76, #43 ) ) ;
#188 = DIRECTION ( 'NONE',  ( 0.0000000000000000000, 1.000000000000000000, 0.0000000000000000000 ) ) ;
#189 = AXIS2_PLACEMENT_3D ( 'NONE', #209, #150, #131 ) ;
#190 = CARTESIAN_POINT ( 'NONE',  ( 1.396592535537253145E-15, 2.313999999999997836, 0.3999999999999999112 ) ) ;
#191 = COORDINATED_UNIVERSAL_TIME_OFFSET ( 1, 0, .AHEAD. ) ;
#192 = AXIS2_PLACEMENT_3D ( 'NONE', #46, #134, #168 ) ;
#193 = DATE_AND_TIME ( #49, #177 ) ;
#194 = PERSON_AND_ORGANIZATION ( #50, #124 ) ;
#195 = EDGE_LOOP ( 'NONE', ( #74 ) ) ;
#196 = APPROVAL_STATUS ( 'not_yet_approved' ) ;
#197 = AXIS2_PLACEMENT_3D ( 'NONE', #200, #218, #61 ) ;
#198 = PRODUCT ( '321366', '321366', '', ( #149 ) ) ;
#199 = ADVANCED_FACE ( 'NONE', ( #66 ), #114, .T. ) ;
#200 = CARTESIAN_POINT ( 'NONE',  ( 3.517160096861144601E-30, 4.871504042654494855E-31, 1.007354688605186668E-15 ) ) ;
#201 = DIRECTION ( 'NONE',  ( 3.153425691349006731E-31, 1.000000000000000000, 9.031770143711729009E-17 ) ) ;
#202 = DIRECTION ( 'NONE',  ( 0.0000000000000000000, 1.000000000000000000, 0.0000000000000000000 ) ) ;
#203 = DIRECTION ( 'NONE',  ( -3.491481338843133355E-15, -4.835937230212056808E-16, -1.000000000000000000 ) ) ;
#204 = CARTESIAN_POINT ( 'NONE',  ( -1.758580048430572301E-30, 2.083059892324147899, -5.036773443025933338E-16 ) ) ;
#205 = AXIS2_PLACEMENT_3D ( 'NONE', #15, #38, #219 ) ;
#206 = CARTESIAN_POINT ( 'NONE',  ( 2.779219145719134403E-13, -7.189289034394536528E-15, 79.60000000000000853 ) ) ;
#207 = APPLICATION_PROTOCOL_DEFINITION ( 'international standard', 'config_control_design', 1994, #14 ) ;
#208 = CLOSED_SHELL ( 'NONE', ( #127, #236, #143, #22, #199 ) ) ;
#209 = CARTESIAN_POINT ( 'NONE',  ( 4.695342175477358876E-14, 2.313999999999998280, 13.44799447512760437 ) ) ;
#210 = CIRCLE ( 'NONE', #192, 2.083059892324147899 ) ;
#211 = CARTESIAN_POINT ( 'NONE',  ( 2.793185071074506684E-13, 1.599999999999987876, 80.00000000000000000 ) ) ;
#212 = EDGE_LOOP ( 'NONE', ( #180 ) ) ;
#213 = CC_DESIGN_PERSON_AND_ORGANIZATION_ASSIGNMENT ( #135, #87, ( #89 ) ) ;
#214 = PERSON_AND_ORGANIZATION ( #50, #124 ) ;
#215 = EDGE_LOOP ( 'NONE', ( #156 ) ) ;
#216 = EDGE_LOOP ( 'NONE', ( #7 ) ) ;
#217 = AXIS2_PLACEMENT_3D ( 'NONE', #206, #19, #188 ) ;
#218 = DIRECTION ( 'NONE',  ( 3.491481338843133355E-15, 4.835937230212056808E-16, 1.000000000000000000 ) ) ;
#219 = DIRECTION ( 'NONE',  ( 0.0000000000000000000, 1.000000000000000000, 0.0000000000000000000 ) ) ;
#220 = CC_DESIGN_APPROVAL ( #47, ( #82 ) ) ;
#221 = FACE_OUTER_BOUND ( 'NONE', #4, .T. ) ;
#222 = ORIENTED_EDGE ( 'NONE', *, *, #122, .T. ) ;
#223 = PRODUCT_RELATED_PRODUCT_CATEGORY ( 'detail', '', ( #198 ) ) ;
#224 = LOCAL_TIME ( 11, 3, 4.000000000000000000, #155 ) ;
#225 = PERSON_AND_ORGANIZATION ( #50, #124 ) ;
#226 = VERTEX_POINT ( 'NONE', #211 ) ;
#227 = CIRCLE ( 'NONE', #205, 1.999999999999991784 ) ;
#228 = APPROVAL_DATE_TIME ( #70, #103 ) ;
#229 = EDGE_CURVE ( 'NONE', #97, #97, #54, .T. ) ;
#230 = APPROVAL_PERSON_ORGANIZATION ( #194, #103, #153 ) ;
#231 = EDGE_LOOP ( 'NONE', ( #40 ) ) ;
#232 = EDGE_LOOP ( 'NONE', ( #139 ) ) ;
#233 = AXIS2_PLACEMENT_3D ( 'NONE', #204, #79, #78 ) ;
#234 = CYLINDRICAL_SURFACE ( 'NONE', #169, 1.999999999999993561 ) ;
#235 = ORIENTED_EDGE ( 'NONE', *, *, #122, .F. ) ;
#236 = ADVANCED_FACE ( 'NONE', ( #130, #18 ), #104, .T. ) ;
#237 = ORIENTED_EDGE ( 'NONE', *, *, #65, .T. ) ;
#238 = LOCAL_TIME ( 11, 3, 4.000000000000000000, #173 ) ;
#239 = DIRECTION ( 'NONE',  ( 0.0000000000000000000, 1.000000000000000000, 0.0000000000000000000 ) ) ;
#240 = CC_DESIGN_PERSON_AND_ORGANIZATION_ASSIGNMENT ( #3, #28, ( #82 ) ) ;
#241 = DIRECTION ( 'NONE',  ( 0.0000000000000000000, 1.000000000000000000, 0.0000000000000000000 ) ) ;
#242 =( NAMED_UNIT ( * ) SI_UNIT ( $, .STERADIAN. ) SOLID_ANGLE_UNIT ( ) );
#243 = CYLINDRICAL_SURFACE ( 'NONE', #174, 2.313999999999994728 ) ;
ENDSEC;
END-ISO-10303-21;
