ISO-10303-21;
HEADER;
FILE_DESCRIPTION (( 'STEP AP203' ),
    '1' );
FILE_NAME ('321365.step',
    '2021-11-26T10:03:03',
    ( '' ),
    ( '' ),
    'SwSTEP 2.0',
    'SolidWorks 2019',
    '' );
FILE_SCHEMA (( 'CONFIG_CONTROL_DESIGN' ));
ENDSEC;

DATA;
#1 = ORGANIZATION ( 'UNSPECIFIED', 'UNSPECIFIED', '' ) ;
#2 = DIRECTION ( 'NONE',  ( -3.491481338843133355E-15, -4.831248698703371616E-16, -1.000000000000000000 ) ) ;
#3 = ADVANCED_FACE ( 'NONE', ( #102, #219 ), #224, .T. ) ;
#4 = VERTEX_POINT ( 'NONE', #44 ) ;
#5 =( NAMED_UNIT ( * ) PLANE_ANGLE_UNIT ( ) SI_UNIT ( $, .RADIAN. ) );
#6 = AXIS2_PLACEMENT_3D ( 'NONE', #98, #42, #25 ) ;
#7 = DIRECTION ( 'NONE',  ( 1.686821467483299470E-30, -1.000000000000000000, 4.831248698703371616E-16 ) ) ;
#8 = CARTESIAN_POINT ( 'NONE',  ( 2.779219145719134403E-13, -7.189289034394536528E-15, 79.60000000000000853 ) ) ;
#9 = CARTESIAN_POINT ( 'NONE',  ( 0.0000000000000000000, 2.078059892324149338, 0.0000000000000000000 ) ) ;
#10 = ADVANCED_FACE ( 'NONE', ( #233 ), #179, .T. ) ;
#11 = CIRCLE ( 'NONE', #51, 1.999999999999991784 ) ;
#12 = CALENDAR_DATE ( 2021, 26, 11 ) ;
#13 = CC_DESIGN_DATE_AND_TIME_ASSIGNMENT ( #204, #128, ( #231 ) ) ;
#14 = CYLINDRICAL_SURFACE ( 'NONE', #234, 1.999999999999993561 ) ;
#15 = COORDINATED_UNIVERSAL_TIME_OFFSET ( 1, 0, .AHEAD. ) ;
#16 = COORDINATED_UNIVERSAL_TIME_OFFSET ( 1, 0, .AHEAD. ) ;
#17 = EDGE_LOOP ( 'NONE', ( #55 ) ) ;
#18 = DIRECTION ( 'NONE',  ( -3.491481338843133355E-15, 9.031770143711729009E-17, -1.000000000000000000 ) ) ;
#19 = APPLICATION_CONTEXT ( 'configuration controlled 3d designs of mechanical parts and assemblies' ) ;
#20 = AXIS2_PLACEMENT_3D ( 'NONE', #160, #226, #121 ) ;
#21 = APPROVAL_STATUS ( 'not_yet_approved' ) ;
#22 = EDGE_LOOP ( 'NONE', ( #94 ) ) ;
#23 = ORIENTED_EDGE ( 'NONE', *, *, #104, .T. ) ;
#24 = EDGE_LOOP ( 'NONE', ( #115 ) ) ;
#25 = DIRECTION ( 'NONE',  ( -1.686821467483299470E-30, 1.000000000000000000, -4.831248698703371616E-16 ) ) ;
#26 = ADVANCED_FACE ( 'NONE', ( #145, #88 ), #14, .T. ) ;
#27 = CARTESIAN_POINT ( 'NONE',  ( 4.698365887013635749E-14, 2.308999999999998387, 13.45665472916544658 ) ) ;
#28 = CC_DESIGN_PERSON_AND_ORGANIZATION_ASSIGNMENT ( #89, #201, ( #231 ) ) ;
#29 = DIRECTION ( 'NONE',  ( -1.686821467483299470E-30, 1.000000000000000000, -4.831248698703371616E-16 ) ) ;
#30 = PRODUCT_DEFINITION ( 'UNKNOWN', '', #130, #153 ) ;
#31 = CIRCLE ( 'NONE', #20, 2.308999999999992170 ) ;
#32 = APPROVAL_ROLE ( '' ) ;
#33 = MECHANICAL_CONTEXT ( 'NONE', #64, 'mechanical' ) ;
#34 = DIRECTION ( 'NONE',  ( 0.0000000000000000000, 0.0000000000000000000, 1.000000000000000000 ) ) ;
#35 = AXIS2_PLACEMENT_3D ( 'NONE', #242, #2, #196 ) ;
#36 = ORIENTED_EDGE ( 'NONE', *, *, #104, .F. ) ;
#37 = SHAPE_DEFINITION_REPRESENTATION ( #138, #243 ) ;
#38 = EDGE_LOOP ( 'NONE', ( #78 ) ) ;
#39 = FACE_OUTER_BOUND ( 'NONE', #189, .T. ) ;
#40 = FACE_OUTER_BOUND ( 'NONE', #132, .T. ) ;
#41 = DIRECTION ( 'NONE',  ( -1.686821467483299470E-30, 1.000000000000000000, -4.831248698703370630E-16 ) ) ;
#42 = DIRECTION ( 'NONE',  ( -3.491481338843133355E-15, -4.831248698703371616E-16, -1.000000000000000000 ) ) ;
#43 = CARTESIAN_POINT ( 'NONE',  ( 1.396592535537253145E-15, 2.308999999999998831, 0.3999999999999999112 ) ) ;
#44 = CARTESIAN_POINT ( 'NONE',  ( 4.698365887013635749E-14, 2.308999999999998387, 13.45665472916544658 ) ) ;
#45 = AXIS2_PLACEMENT_3D ( 'NONE', #62, #123, #29 ) ;
#46 = ORIENTED_EDGE ( 'NONE', *, *, #131, .F. ) ;
#47 = FACE_BOUND ( 'NONE', #38, .T. ) ;
#48 = PERSON_AND_ORGANIZATION_ROLE ( 'design_supplier' ) ;
#49 = PERSON_AND_ORGANIZATION ( #149, #1 ) ;
#50 = EDGE_CURVE ( 'NONE', #174, #174, #241, .T. ) ;
#51 = AXIS2_PLACEMENT_3D ( 'NONE', #190, #172, #97 ) ;
#52 = APPLICATION_PROTOCOL_DEFINITION ( 'international standard', 'config_control_design', 1994, #19 ) ;
#53 = COORDINATED_UNIVERSAL_TIME_OFFSET ( 1, 0, .AHEAD. ) ;
#54 = ORIENTED_EDGE ( 'NONE', *, *, #178, .T. ) ;
#55 = ORIENTED_EDGE ( 'NONE', *, *, #178, .F. ) ;
#56 = CC_DESIGN_PERSON_AND_ORGANIZATION_ASSIGNMENT ( #49, #107, ( #168 ) ) ;
#57 = EDGE_LOOP ( 'NONE', ( #23 ) ) ;
#58 = DIRECTION ( 'NONE',  ( 0.0000000000000000000, 1.000000000000000000, 0.0000000000000000000 ) ) ;
#59 = DIRECTION ( 'NONE',  ( -3.491481338843133355E-15, 9.031770143711729009E-17, -1.000000000000000000 ) ) ;
#60 = CARTESIAN_POINT ( 'NONE',  ( 3.505316037088408553E-30, 4.850392111314760502E-31, 1.003962415061871551E-15 ) ) ;
#61 = FACE_BOUND ( 'NONE', #236, .T. ) ;
#62 = CARTESIAN_POINT ( 'NONE',  ( -1.752658018544204277E-30, 2.078059892324149338, -5.019812075309357756E-16 ) ) ;
#63 = AXIS2_PLACEMENT_3D ( 'NONE', #118, #210, #193 ) ;
#64 = APPLICATION_CONTEXT ( 'configuration controlled 3d designs of mechanical parts and assemblies' ) ;
#65 = CARTESIAN_POINT ( 'NONE',  ( 4.698365887013635749E-14, -1.215374124171137450E-15, 13.45665472916544658 ) ) ;
#66 = ADVANCED_FACE ( 'NONE', ( #47, #124 ), #136, .T. ) ;
#67 = CALENDAR_DATE ( 2021, 26, 11 ) ;
#68 = DIRECTION ( 'NONE',  ( 0.0000000000000000000, 1.000000000000000000, 0.0000000000000000000 ) ) ;
#69 = ADVANCED_FACE ( 'NONE', ( #40, #155 ), #134, .T. ) ;
#70 = APPROVAL_PERSON_ORGANIZATION ( #105, #227, #32 ) ;
#71 = AXIS2_PLACEMENT_3D ( 'NONE', #90, #142, #165 ) ;
#72 = CARTESIAN_POINT ( 'NONE',  ( 4.698365887013636380E-14, 2.308999999999998387, 13.45665472916544836 ) ) ;
#73 = PERSON_AND_ORGANIZATION ( #149, #1 ) ;
#74 = CC_DESIGN_PERSON_AND_ORGANIZATION_ASSIGNMENT ( #109, #106, ( #30 ) ) ;
#75 = ADVANCED_FACE ( 'NONE', ( #39 ), #116, .T. ) ;
#76 = CARTESIAN_POINT ( 'NONE',  ( 0.0000000000000000000, 0.0000000000000000000, 0.0000000000000000000 ) ) ;
#77 = ORIENTED_EDGE ( 'NONE', *, *, #131, .T. ) ;
#78 = ORIENTED_EDGE ( 'NONE', *, *, #50, .T. ) ;
#79 = CC_DESIGN_APPROVAL ( #223, ( #231 ) ) ;
#80 = AXIS2_PLACEMENT_3D ( 'NONE', #60, #140, #137 ) ;
#81 = MANIFOLD_SOLID_BREP ( 'Corps-Déplacer/Copier1[2]', #146 ) ;
#82 = DIRECTION ( 'NONE',  ( 3.491481338843133355E-15, 4.831248698703371616E-16, 1.000000000000000000 ) ) ;
#83 = CIRCLE ( 'NONE', #35, 2.308999999999998831 ) ;
#84 = DIRECTION ( 'NONE',  ( -3.491481338843133355E-15, 9.031770143711729009E-17, -1.000000000000000000 ) ) ;
#85 = MANIFOLD_SOLID_BREP ( 'Corps-Déplacer/Copier1[1]', #173 ) ;
#86 = VERTEX_POINT ( 'NONE', #162 ) ;
#87 = LOCAL_TIME ( 11, 3, 3.000000000000000000, #203 ) ;
#88 = FACE_OUTER_BOUND ( 'NONE', #110, .T. ) ;
#89 = PERSON_AND_ORGANIZATION ( #149, #1 ) ;
#90 = CARTESIAN_POINT ( 'NONE',  ( 2.793185071074506684E-13, -7.225416114969383207E-15, 80.00000000000000000 ) ) ;
#91 = DATE_AND_TIME ( #12, #191 ) ;
#92 = ORIENTED_EDGE ( 'NONE', *, *, #207, .T. ) ;
#93 = CALENDAR_DATE ( 2021, 26, 11 ) ;
#94 = ORIENTED_EDGE ( 'NONE', *, *, #207, .F. ) ;
#95 = APPROVAL_DATE_TIME ( #184, #227 ) ;
#96 = AXIS2_PLACEMENT_3D ( 'NONE', #206, #117, #41 ) ;
#97 = DIRECTION ( 'NONE',  ( 0.0000000000000000000, 1.000000000000000000, 0.0000000000000000000 ) ) ;
#98 = CARTESIAN_POINT ( 'NONE',  ( 3.505316037088408553E-30, 4.850392111314760502E-31, 1.003962415061871551E-15 ) ) ;
#99 = LOCAL_TIME ( 11, 3, 3.000000000000000000, #53 ) ;
#100 = VERTEX_POINT ( 'NONE', #27 ) ;
#101 = VERTEX_POINT ( 'NONE', #194 ) ;
#102 = FACE_BOUND ( 'NONE', #113, .T. ) ;
#103 = DIRECTION ( 'NONE',  ( 0.0000000000000000000, 1.000000000000000000, 0.0000000000000000000 ) ) ;
#104 = EDGE_CURVE ( 'NONE', #180, #180, #222, .T. ) ;
#105 = PERSON_AND_ORGANIZATION ( #149, #1 ) ;
#106 = PERSON_AND_ORGANIZATION_ROLE ( 'creator' ) ;
#107 = PERSON_AND_ORGANIZATION_ROLE ( 'design_owner' ) ;
#108 = CARTESIAN_POINT ( 'NONE',  ( 0.0000000000000000000, 0.0000000000000000000, 0.0000000000000000000 ) ) ;
#109 = PERSON_AND_ORGANIZATION ( #149, #1 ) ;
#110 = EDGE_LOOP ( 'NONE', ( #46 ) ) ;
#111 = AXIS2_PLACEMENT_3D ( 'NONE', #215, #225, #159 ) ;
#112 = DATE_AND_TIME ( #205, #99 ) ;
#113 = EDGE_LOOP ( 'NONE', ( #77 ) ) ;
#114 = EDGE_LOOP ( 'NONE', ( #238 ) ) ;
#115 = ORIENTED_EDGE ( 'NONE', *, *, #154, .F. ) ;
#116 = PLANE ( 'NONE',  #63 ) ;
#117 = DIRECTION ( 'NONE',  ( -3.491481338843133355E-15, -4.831248698703371616E-16, -1.000000000000000000 ) ) ;
#118 = CARTESIAN_POINT ( 'NONE',  ( 2.793185071074506684E-13, -7.225416114969383207E-15, 80.00000000000000000 ) ) ;
#119 = CC_DESIGN_PERSON_AND_ORGANIZATION_ASSIGNMENT ( #125, #235, ( #130 ) ) ;
#120 = DIRECTION ( 'NONE',  ( -3.491481338843133355E-15, 9.031770143711729009E-17, -1.000000000000000000 ) ) ;
#121 = DIRECTION ( 'NONE',  ( -2.669110360346113397E-30, 1.000000000000000000, -7.512877765165929124E-16 ) ) ;
#122 = AXIS2_PLACEMENT_3D ( 'NONE', #72, #84, #148 ) ;
#123 = DIRECTION ( 'NONE',  ( -3.491481338843133355E-15, -4.831248698703371616E-16, -1.000000000000000000 ) ) ;
#124 = FACE_OUTER_BOUND ( 'NONE', #24, .T. ) ;
#125 = PERSON_AND_ORGANIZATION ( #149, #1 ) ;
#126 = DIRECTION ( 'NONE',  ( -3.491481338843133355E-15, 9.031770143711729009E-17, -1.000000000000000000 ) ) ;
#127 = SECURITY_CLASSIFICATION_LEVEL ( 'unclassified' ) ;
#128 = DATE_TIME_ROLE ( 'classification_date' ) ;
#129 = EDGE_LOOP ( 'NONE', ( #221 ) ) ;
#130 = PRODUCT_DEFINITION_FORMATION_WITH_SPECIFIED_SOURCE ( 'ANY', '', #168, .NOT_KNOWN. ) ;
#131 = EDGE_CURVE ( 'NONE', #86, #86, #11, .T. ) ;
#132 = EDGE_LOOP ( 'NONE', ( #54 ) ) ;
#133 = APPROVAL_PERSON_ORGANIZATION ( #185, #223, #220 ) ;
#134 = CYLINDRICAL_SURFACE ( 'NONE', #96, 2.308999999999995723 ) ;
#135 = CC_DESIGN_APPROVAL ( #164, ( #130 ) ) ;
#136 = CONICAL_SURFACE ( 'NONE', #170, 1.999999999999995337, 0.7853981633974516097 ) ;
#137 = DIRECTION ( 'NONE',  ( 1.686821467483299470E-30, -1.000000000000000000, 4.831248698703371616E-16 ) ) ;
#138 = PRODUCT_DEFINITION_SHAPE ( 'NONE', 'NONE',  #30 ) ;
#139 = EDGE_CURVE ( 'NONE', #230, #230, #83, .T. ) ;
#140 = DIRECTION ( 'NONE',  ( 3.491481338843133355E-15, 4.831248698703371616E-16, 1.000000000000000000 ) ) ;
#141 = PLANE ( 'NONE',  #229 ) ;
#142 = DIRECTION ( 'NONE',  ( -3.491481338843133355E-15, 9.031770143711729009E-17, -1.000000000000000000 ) ) ;
#143 = DATE_AND_TIME ( #93, #209 ) ;
#144 = DATE_TIME_ROLE ( 'creation_date' ) ;
#145 = FACE_OUTER_BOUND ( 'NONE', #188, .T. ) ;
#146 = CLOSED_SHELL ( 'NONE', ( #166, #69, #214, #216 ) ) ;
#147 = CIRCLE ( 'NONE', #197, 1.999999999999995337 ) ;
#148 = DIRECTION ( 'NONE',  ( 3.153425691349006731E-31, 1.000000000000000000, 9.031770143711729009E-17 ) ) ;
#149 = PERSON ( 'UNSPECIFIED', 'UNSPECIFIED', 'UNSPECIFIED', ('UNSPECIFIED'), ('UNSPECIFIED'), ('UNSPECIFIED') ) ;
#150 = CALENDAR_DATE ( 2021, 26, 11 ) ;
#151 = COORDINATED_UNIVERSAL_TIME_OFFSET ( 1, 0, .AHEAD. ) ;
#152 = CC_DESIGN_DATE_AND_TIME_ASSIGNMENT ( #143, #144, ( #30 ) ) ;
#153 = DESIGN_CONTEXT ( 'detailed design', #19, 'design' ) ;
#154 = EDGE_CURVE ( 'NONE', #101, #101, #147, .T. ) ;
#155 = FACE_OUTER_BOUND ( 'NONE', #114, .T. ) ;
#156 =( GEOMETRIC_REPRESENTATION_CONTEXT ( 3 ) GLOBAL_UNCERTAINTY_ASSIGNED_CONTEXT ( ( #237 ) ) GLOBAL_UNIT_ASSIGNED_CONTEXT ( ( #158, #5, #169 ) ) REPRESENTATION_CONTEXT ( 'NONE', 'WORKASPACE' ) );
#157 = CIRCLE ( 'NONE', #111, 2.308999999999999719 ) ;
#158 =( LENGTH_UNIT ( ) NAMED_UNIT ( * ) SI_UNIT ( .MILLI., .METRE. ) );
#159 = DIRECTION ( 'NONE',  ( 0.0000000000000000000, 1.000000000000000000, 0.0000000000000000000 ) ) ;
#160 = CARTESIAN_POINT ( 'NONE',  ( 4.698365887013636380E-14, 6.501244564918114537E-15, 13.45665472916544836 ) ) ;
#161 = FACE_OUTER_BOUND ( 'NONE', #17, .T. ) ;
#162 = CARTESIAN_POINT ( 'NONE',  ( 4.885231259955590439E-14, 1.999999999999990452, 13.99185842870425134 ) ) ;
#163 = APPROVAL_PERSON_ORGANIZATION ( #181, #164, #218 ) ;
#164 = APPROVAL ( #167, 'UNSPECIFIED' ) ;
#165 = DIRECTION ( 'NONE',  ( 0.0000000000000000000, 1.000000000000000000, 0.0000000000000000000 ) ) ;
#166 = ADVANCED_FACE ( 'NONE', ( #161 ), #141, .T. ) ;
#167 = APPROVAL_STATUS ( 'not_yet_approved' ) ;
#168 = PRODUCT ( '321365', '321365', '', ( #33 ) ) ;
#169 =( NAMED_UNIT ( * ) SI_UNIT ( $, .STERADIAN. ) SOLID_ANGLE_UNIT ( ) );
#170 = AXIS2_PLACEMENT_3D ( 'NONE', #199, #59, #58 ) ;
#171 = EDGE_LOOP ( 'NONE', ( #92 ) ) ;
#172 = DIRECTION ( 'NONE',  ( -3.491481338843133355E-15, 9.031770143711729009E-17, -1.000000000000000000 ) ) ;
#173 = CLOSED_SHELL ( 'NONE', ( #75, #66, #26, #3, #10 ) ) ;
#174 = VERTEX_POINT ( 'NONE', #195 ) ;
#175 = APPROVAL_DATE_TIME ( #112, #223 ) ;
#176 = CC_DESIGN_PERSON_AND_ORGANIZATION_ASSIGNMENT ( #73, #48, ( #130 ) ) ;
#177 = CARTESIAN_POINT ( 'NONE',  ( 4.698365887013636380E-14, 6.501244564918113748E-15, 13.45665472916544836 ) ) ;
#178 = EDGE_CURVE ( 'NONE', #100, #100, #31, .T. ) ;
#179 = PLANE ( 'NONE',  #122 ) ;
#180 = VERTEX_POINT ( 'NONE', #9 ) ;
#181 = PERSON_AND_ORGANIZATION ( #149, #1 ) ;
#182 = CC_DESIGN_SECURITY_CLASSIFICATION ( #231, ( #130 ) ) ;
#183 = DIRECTION ( 'NONE',  ( 1.000000000000000000, 0.0000000000000000000, 0.0000000000000000000 ) ) ;
#184 = DATE_AND_TIME ( #67, #87 ) ;
#185 = PERSON_AND_ORGANIZATION ( #149, #1 ) ;
#186 = CONICAL_SURFACE ( 'NONE', #80, 2.078059892324149338, 0.5235987755982979275 ) ;
#187 = ORIENTED_EDGE ( 'NONE', *, *, #154, .T. ) ;
#188 = EDGE_LOOP ( 'NONE', ( #187 ) ) ;
#189 = EDGE_LOOP ( 'NONE', ( #239 ) ) ;
#190 = CARTESIAN_POINT ( 'NONE',  ( 4.885231259955590439E-14, -1.263712492114123682E-15, 13.99185842870425134 ) ) ;
#191 = LOCAL_TIME ( 11, 3, 3.000000000000000000, #16 ) ;
#192 = LOCAL_TIME ( 11, 3, 3.000000000000000000, #151 ) ;
#193 = DIRECTION ( 'NONE',  ( -3.153425691349006731E-31, -1.000000000000000000, -9.031770143711729009E-17 ) ) ;
#194 = CARTESIAN_POINT ( 'NONE',  ( 2.779219145719134403E-13, 1.999999999999988010, 79.60000000000000853 ) ) ;
#195 = CARTESIAN_POINT ( 'NONE',  ( 2.793185071074506684E-13, 1.599999999999987876, 80.00000000000000000 ) ) ;
#196 = DIRECTION ( 'NONE',  ( -1.668193975216315837E-30, 1.000000000000000000, -4.930326033390127090E-16 ) ) ;
#197 = AXIS2_PLACEMENT_3D ( 'NONE', #8, #120, #103 ) ;
#198 = FACE_OUTER_BOUND ( 'NONE', #129, .T. ) ;
#199 = CARTESIAN_POINT ( 'NONE',  ( 2.779219145719134403E-13, -7.189289034394536528E-15, 79.60000000000000853 ) ) ;
#200 = APPROVAL_STATUS ( 'not_yet_approved' ) ;
#201 = PERSON_AND_ORGANIZATION_ROLE ( 'classification_officer' ) ;
#202 = CC_DESIGN_APPROVAL ( #227, ( #30 ) ) ;
#203 = COORDINATED_UNIVERSAL_TIME_OFFSET ( 1, 0, .AHEAD. ) ;
#204 = DATE_AND_TIME ( #150, #192 ) ;
#205 = CALENDAR_DATE ( 2021, 26, 11 ) ;
#206 = CARTESIAN_POINT ( 'NONE',  ( 0.0000000000000000000, 0.0000000000000000000, 0.0000000000000000000 ) ) ;
#207 = EDGE_CURVE ( 'NONE', #4, #4, #157, .T. ) ;
#208 = AXIS2_PLACEMENT_3D ( 'NONE', #65, #126, #68 ) ;
#209 = LOCAL_TIME ( 11, 3, 3.000000000000000000, #15 ) ;
#210 = DIRECTION ( 'NONE',  ( 3.491481338843133355E-15, -9.031770143711729009E-17, 1.000000000000000000 ) ) ;
#211 = PRODUCT_RELATED_PRODUCT_CATEGORY ( 'detail', '', ( #168 ) ) ;
#212 = FACE_OUTER_BOUND ( 'NONE', #57, .T. ) ;
#213 = PLANE ( 'NONE',  #45 ) ;
#214 = ADVANCED_FACE ( 'NONE', ( #198, #61 ), #186, .T. ) ;
#215 = CARTESIAN_POINT ( 'NONE',  ( 4.698365887013635749E-14, -1.215374124171137450E-15, 13.45665472916544658 ) ) ;
#216 = ADVANCED_FACE ( 'NONE', ( #212 ), #213, .T. ) ;
#217 = APPROVAL_DATE_TIME ( #91, #164 ) ;
#218 = APPROVAL_ROLE ( '' ) ;
#219 = FACE_OUTER_BOUND ( 'NONE', #22, .T. ) ;
#220 = APPROVAL_ROLE ( '' ) ;
#221 = ORIENTED_EDGE ( 'NONE', *, *, #139, .T. ) ;
#222 = CIRCLE ( 'NONE', #6, 2.078059892324149338 ) ;
#223 = APPROVAL ( #21, 'UNSPECIFIED' ) ;
#224 = CONICAL_SURFACE ( 'NONE', #208, 2.308999999999999719, 0.5235987755982923764 ) ;
#225 = DIRECTION ( 'NONE',  ( -3.491481338843133355E-15, 9.031770143711729009E-17, -1.000000000000000000 ) ) ;
#226 = DIRECTION ( 'NONE',  ( -3.491481338843133355E-15, -4.831248698703371616E-16, -1.000000000000000000 ) ) ;
#227 = APPROVAL ( #200, 'UNSPECIFIED' ) ;
#228 = DIRECTION ( 'NONE',  ( 3.153425691349006731E-31, 1.000000000000000000, 9.031770143711729009E-17 ) ) ;
#229 = AXIS2_PLACEMENT_3D ( 'NONE', #177, #82, #7 ) ;
#230 = VERTEX_POINT ( 'NONE', #43 ) ;
#231 = SECURITY_CLASSIFICATION ( '', '', #127 ) ;
#232 = APPLICATION_PROTOCOL_DEFINITION ( 'international standard', 'config_control_design', 1994, #64 ) ;
#233 = FACE_OUTER_BOUND ( 'NONE', #171, .T. ) ;
#234 = AXIS2_PLACEMENT_3D ( 'NONE', #108, #18, #228 ) ;
#235 = PERSON_AND_ORGANIZATION_ROLE ( 'creator' ) ;
#236 = EDGE_LOOP ( 'NONE', ( #36 ) ) ;
#237 = UNCERTAINTY_MEASURE_WITH_UNIT (LENGTH_MEASURE( 1.000000000000000082E-05 ), #158, 'distance_accuracy_value', 'NONE');
#238 = ORIENTED_EDGE ( 'NONE', *, *, #139, .F. ) ;
#239 = ORIENTED_EDGE ( 'NONE', *, *, #50, .F. ) ;
#240 = AXIS2_PLACEMENT_3D ( 'NONE', #76, #34, #183 ) ;
#241 = CIRCLE ( 'NONE', #71, 1.599999999999994982 ) ;
#242 = CARTESIAN_POINT ( 'NONE',  ( 1.396592535537256892E-15, 1.932499479481353823E-16, 0.4000000000000010214 ) ) ;
#243 = ADVANCED_BREP_SHAPE_REPRESENTATION ( '321365', ( #85, #81, #240 ), #156 ) ;
ENDSEC;
END-ISO-10303-21;
