ISO-10303-21;
HEADER;
FILE_DESCRIPTION (( 'STEP AP203' ),
    '1' );
FILE_NAME ('321364.step',
    '2021-11-26T10:03:02',
    ( '' ),
    ( '' ),
    'SwSTEP 2.0',
    'SolidWorks 2019',
    '' );
FILE_SCHEMA (( 'CONFIG_CONTROL_DESIGN' ));
ENDSEC;

DATA;
#1 = AXIS2_PLACEMENT_3D ( 'NONE', #215, #42, #163 ) ;
#2 = ORIENTED_EDGE ( 'NONE', *, *, #240, .T. ) ;
#3 = DIRECTION ( 'NONE',  ( 3.153425691349006731E-31, 1.000000000000000000, 9.031770143711729009E-17 ) ) ;
#4 = EDGE_LOOP ( 'NONE', ( #97 ) ) ;
#5 = AXIS2_PLACEMENT_3D ( 'NONE', #234, #216, #160 ) ;
#6 = LOCAL_TIME ( 11, 3, 2.000000000000000000, #102 ) ;
#7 = CARTESIAN_POINT ( 'NONE',  ( 3.493492712419628352E-30, 4.829346687725520411E-31, 1.000576080288363071E-15 ) ) ;
#8 = ORIENTED_EDGE ( 'NONE', *, *, #141, .F. ) ;
#9 = VERTEX_POINT ( 'NONE', #210 ) ;
#10 = DIRECTION ( 'NONE',  ( -1.685186581128153530E-30, 1.000000000000000000, -4.826566198078328473E-16 ) ) ;
#11 = APPROVAL_PERSON_ORGANIZATION ( #125, #131, #15 ) ;
#12 = DATE_AND_TIME ( #70, #167 ) ;
#13 = APPROVAL_DATE_TIME ( #127, #169 ) ;
#14 = AXIS2_PLACEMENT_3D ( 'NONE', #34, #111, #172 ) ;
#15 = APPROVAL_ROLE ( '' ) ;
#16 = PRODUCT_DEFINITION_FORMATION_WITH_SPECIFIED_SOURCE ( 'ANY', '', #176, .NOT_KNOWN. ) ;
#17 = FACE_OUTER_BOUND ( 'NONE', #154, .T. ) ;
#18 = PLANE ( 'NONE',  #25 ) ;
#19 = CARTESIAN_POINT ( 'NONE',  ( 2.779219145719134403E-13, 1.999999999999988010, 79.60000000000000853 ) ) ;
#20 = ADVANCED_FACE ( 'NONE', ( #24, #99 ), #37, .T. ) ;
#21 = EDGE_LOOP ( 'NONE', ( #68 ) ) ;
#22 = VERTEX_POINT ( 'NONE', #39 ) ;
#23 = PERSON_AND_ORGANIZATION ( #217, #227 ) ;
#24 = FACE_BOUND ( 'NONE', #40, .T. ) ;
#25 = AXIS2_PLACEMENT_3D ( 'NONE', #149, #33, #35 ) ;
#26 = DIRECTION ( 'NONE',  ( -3.491481338843133355E-15, 9.031770143711729009E-17, -1.000000000000000000 ) ) ;
#27 = DATE_TIME_ROLE ( 'classification_date' ) ;
#28 = EDGE_LOOP ( 'NONE', ( #115 ) ) ;
#29 = ADVANCED_FACE ( 'NONE', ( #64 ), #120, .T. ) ;
#30 = PERSON_AND_ORGANIZATION ( #217, #227 ) ;
#31 = COORDINATED_UNIVERSAL_TIME_OFFSET ( 1, 0, .AHEAD. ) ;
#32 = CARTESIAN_POINT ( 'NONE',  ( 4.701389598549912622E-14, 6.499123414440666026E-15, 13.46531498320329057 ) ) ;
#33 = DIRECTION ( 'NONE',  ( -3.491481338843133355E-15, -4.826566198078328473E-16, -1.000000000000000000 ) ) ;
#34 = CARTESIAN_POINT ( 'NONE',  ( 4.701389598549913253E-14, -1.216156298409696943E-15, 13.46531498320329234 ) ) ;
#35 = DIRECTION ( 'NONE',  ( -1.685186581128153530E-30, 1.000000000000000000, -4.826566198078328473E-16 ) ) ;
#36 = DIRECTION ( 'NONE',  ( -3.491481338843133355E-15, 9.031770143711729009E-17, -1.000000000000000000 ) ) ;
#37 = CONICAL_SURFACE ( 'NONE', #179, 2.303999999999999382, 0.5235987755982919323 ) ;
#38 = DIRECTION ( 'NONE',  ( -3.491481338843133355E-15, -4.826566198078328473E-16, -1.000000000000000000 ) ) ;
#39 = CARTESIAN_POINT ( 'NONE',  ( 2.793185071074506684E-13, 1.599999999999987876, 80.00000000000000000 ) ) ;
#40 = EDGE_LOOP ( 'NONE', ( #214 ) ) ;
#41 = ORIENTED_EDGE ( 'NONE', *, *, #185, .F. ) ;
#42 = DIRECTION ( 'NONE',  ( 0.0000000000000000000, 0.0000000000000000000, 1.000000000000000000 ) ) ;
#43 = ORIENTED_EDGE ( 'NONE', *, *, #185, .T. ) ;
#44 = FACE_OUTER_BOUND ( 'NONE', #226, .T. ) ;
#45 = PERSON_AND_ORGANIZATION ( #217, #227 ) ;
#46 = AXIS2_PLACEMENT_3D ( 'NONE', #212, #119, #208 ) ;
#47 = PERSON_AND_ORGANIZATION ( #217, #227 ) ;
#48 = CARTESIAN_POINT ( 'NONE',  ( 2.779219145719134403E-13, -7.189289034394536528E-15, 79.60000000000000853 ) ) ;
#49 = PERSON_AND_ORGANIZATION_ROLE ( 'creator' ) ;
#50 = CALENDAR_DATE ( 2021, 26, 11 ) ;
#51 = PRODUCT_DEFINITION ( 'UNKNOWN', '', #16, #129 ) ;
#52 = CONICAL_SURFACE ( 'NONE', #74, 2.073059892324147668, 0.5235987755982978165 ) ;
#53 = CARTESIAN_POINT ( 'NONE',  ( 0.0000000000000000000, 0.0000000000000000000, 0.0000000000000000000 ) ) ;
#54 = EDGE_CURVE ( 'NONE', #193, #193, #65, .T. ) ;
#55 = CARTESIAN_POINT ( 'NONE',  ( 4.885231259955590439E-14, -1.263712492114123682E-15, 13.99185842870425134 ) ) ;
#56 = ADVANCED_BREP_SHAPE_REPRESENTATION ( '321364', ( #158, #239, #1 ), #211 ) ;
#57 = EDGE_LOOP ( 'NONE', ( #225 ) ) ;
#58 = CIRCLE ( 'NONE', #152, 2.303999999999991388 ) ;
#59 = EDGE_LOOP ( 'NONE', ( #2 ) ) ;
#60 = CC_DESIGN_PERSON_AND_ORGANIZATION_ASSIGNMENT ( #45, #237, ( #176 ) ) ;
#61 = CARTESIAN_POINT ( 'NONE',  ( 0.0000000000000000000, 2.073059892324147668, 0.0000000000000000000 ) ) ;
#62 = DIRECTION ( 'NONE',  ( -3.491481338843133355E-15, 9.031770143711729009E-17, -1.000000000000000000 ) ) ;
#63 = DIRECTION ( 'NONE',  ( 3.491481338843133355E-15, 4.826566198078328473E-16, 1.000000000000000000 ) ) ;
#64 = FACE_OUTER_BOUND ( 'NONE', #199, .T. ) ;
#65 = CIRCLE ( 'NONE', #128, 1.999999999999995337 ) ;
#66 = DIRECTION ( 'NONE',  ( 0.0000000000000000000, 1.000000000000000000, 0.0000000000000000000 ) ) ;
#67 = COORDINATED_UNIVERSAL_TIME_OFFSET ( 1, 0, .AHEAD. ) ;
#68 = ORIENTED_EDGE ( 'NONE', *, *, #165, .F. ) ;
#69 = AXIS2_PLACEMENT_3D ( 'NONE', #32, #188, #76 ) ;
#70 = CALENDAR_DATE ( 2021, 26, 11 ) ;
#71 = DATE_TIME_ROLE ( 'creation_date' ) ;
#72 = PLANE ( 'NONE',  #114 ) ;
#73 = AXIS2_PLACEMENT_3D ( 'NONE', #162, #124, #81 ) ;
#74 = AXIS2_PLACEMENT_3D ( 'NONE', #7, #63, #139 ) ;
#75 = ADVANCED_FACE ( 'NONE', ( #140, #85 ), #222, .T. ) ;
#76 = DIRECTION ( 'NONE',  ( 1.685186581128153530E-30, -1.000000000000000000, 4.826566198078328473E-16 ) ) ;
#77 = ORIENTED_EDGE ( 'NONE', *, *, #240, .F. ) ;
#78 = CLOSED_SHELL ( 'NONE', ( #29, #75, #171, #20, #136 ) ) ;
#79 = CARTESIAN_POINT ( 'NONE',  ( 4.701389598549913885E-14, 6.499123414440667604E-15, 13.46531498320329412 ) ) ;
#80 = CC_DESIGN_APPROVAL ( #209, ( #51 ) ) ;
#81 = DIRECTION ( 'NONE',  ( 0.0000000000000000000, 1.000000000000000000, 0.0000000000000000000 ) ) ;
#82 = CARTESIAN_POINT ( 'NONE',  ( 4.701389598549913253E-14, -1.216156298409696943E-15, 13.46531498320329234 ) ) ;
#83 = VERTEX_POINT ( 'NONE', #233 ) ;
#84 = APPROVAL_STATUS ( 'not_yet_approved' ) ;
#85 = FACE_OUTER_BOUND ( 'NONE', #57, .T. ) ;
#86 = APPLICATION_CONTEXT ( 'configuration controlled 3d designs of mechanical parts and assemblies' ) ;
#87 = SECURITY_CLASSIFICATION_LEVEL ( 'unclassified' ) ;
#88 = MECHANICAL_CONTEXT ( 'NONE', #151, 'mechanical' ) ;
#89 = UNCERTAINTY_MEASURE_WITH_UNIT (LENGTH_MEASURE( 1.000000000000000082E-05 ), #117, 'distance_accuracy_value', 'NONE');
#90 = CARTESIAN_POINT ( 'NONE',  ( 2.793185071074506684E-13, -7.225416114969383207E-15, 80.00000000000000000 ) ) ;
#91 = AXIS2_PLACEMENT_3D ( 'NONE', #159, #197, #164 ) ;
#92 = LOCAL_TIME ( 11, 3, 2.000000000000000000, #105 ) ;
#93 = CARTESIAN_POINT ( 'NONE',  ( 4.701389598549912622E-14, 2.303999999999998050, 13.46531498320329057 ) ) ;
#94 = PLANE ( 'NONE',  #69 ) ;
#95 = CARTESIAN_POINT ( 'NONE',  ( 4.701389598549913253E-14, 2.303999999999998050, 13.46531498320329234 ) ) ;
#96 = EDGE_LOOP ( 'NONE', ( #103 ) ) ;
#97 = ORIENTED_EDGE ( 'NONE', *, *, #141, .T. ) ;
#98 = CIRCLE ( 'NONE', #14, 2.303999999999999382 ) ;
#99 = FACE_OUTER_BOUND ( 'NONE', #224, .T. ) ;
#100 = VERTEX_POINT ( 'NONE', #189 ) ;
#101 = FACE_OUTER_BOUND ( 'NONE', #28, .T. ) ;
#102 = COORDINATED_UNIVERSAL_TIME_OFFSET ( 1, 0, .AHEAD. ) ;
#103 = ORIENTED_EDGE ( 'NONE', *, *, #54, .T. ) ;
#104 = CIRCLE ( 'NONE', #5, 2.073059892324147668 ) ;
#105 = COORDINATED_UNIVERSAL_TIME_OFFSET ( 1, 0, .AHEAD. ) ;
#106 = APPROVAL_DATE_TIME ( #166, #131 ) ;
#107 = CIRCLE ( 'NONE', #204, 1.999999999999991784 ) ;
#108 = PRODUCT_DEFINITION_SHAPE ( 'NONE', 'NONE',  #51 ) ;
#109 = PERSON_AND_ORGANIZATION_ROLE ( 'classification_officer' ) ;
#110 = DIRECTION ( 'NONE',  ( -3.491481338843133355E-15, 9.031770143711729009E-17, -1.000000000000000000 ) ) ;
#111 = DIRECTION ( 'NONE',  ( -3.491481338843133355E-15, 9.031770143711729009E-17, -1.000000000000000000 ) ) ;
#112 = DIRECTION ( 'NONE',  ( -3.491481338843133355E-15, 9.031770143711729009E-17, -1.000000000000000000 ) ) ;
#113 = ORIENTED_EDGE ( 'NONE', *, *, #118, .F. ) ;
#114 = AXIS2_PLACEMENT_3D ( 'NONE', #93, #130, #223 ) ;
#115 = ORIENTED_EDGE ( 'NONE', *, *, #201, .T. ) ;
#116 = ADVANCED_FACE ( 'NONE', ( #101, #230 ), #213, .T. ) ;
#117 =( LENGTH_UNIT ( ) NAMED_UNIT ( * ) SI_UNIT ( .MILLI., .METRE. ) );
#118 = EDGE_CURVE ( 'NONE', #134, #134, #104, .T. ) ;
#119 = DIRECTION ( 'NONE',  ( -3.491481338843133355E-15, -4.826566198078328473E-16, -1.000000000000000000 ) ) ;
#120 = PLANE ( 'NONE',  #91 ) ;
#121 = APPROVAL_DATE_TIME ( #238, #209 ) ;
#122 = AXIS2_PLACEMENT_3D ( 'NONE', #178, #236, #10 ) ;
#123 = PERSON_AND_ORGANIZATION_ROLE ( 'creator' ) ;
#124 = DIRECTION ( 'NONE',  ( -3.491481338843133355E-15, 9.031770143711729009E-17, -1.000000000000000000 ) ) ;
#125 = PERSON_AND_ORGANIZATION ( #217, #227 ) ;
#126 = CC_DESIGN_PERSON_AND_ORGANIZATION_ASSIGNMENT ( #202, #218, ( #16 ) ) ;
#127 = DATE_AND_TIME ( #50, #187 ) ;
#128 = AXIS2_PLACEMENT_3D ( 'NONE', #48, #26, #183 ) ;
#129 = DESIGN_CONTEXT ( 'detailed design', #86, 'design' ) ;
#130 = DIRECTION ( 'NONE',  ( -3.491481338843133355E-15, 9.031770143711729009E-17, -1.000000000000000000 ) ) ;
#131 = APPROVAL ( #84, 'UNSPECIFIED' ) ;
#132 = FACE_OUTER_BOUND ( 'NONE', #96, .T. ) ;
#133 = LOCAL_TIME ( 11, 3, 2.000000000000000000, #67 ) ;
#134 = VERTEX_POINT ( 'NONE', #61 ) ;
#135 = EDGE_LOOP ( 'NONE', ( #77 ) ) ;
#136 = ADVANCED_FACE ( 'NONE', ( #44 ), #72, .T. ) ;
#137 = PRODUCT_RELATED_PRODUCT_CATEGORY ( 'detail', '', ( #176 ) ) ;
#138 = APPROVAL_PERSON_ORGANIZATION ( #30, #209, #142 ) ;
#139 = DIRECTION ( 'NONE',  ( 1.685186581128153530E-30, -1.000000000000000000, 4.826566198078328473E-16 ) ) ;
#140 = FACE_BOUND ( 'NONE', #4, .T. ) ;
#141 = EDGE_CURVE ( 'NONE', #22, #22, #145, .T. ) ;
#142 = APPROVAL_ROLE ( '' ) ;
#143 = ADVANCED_FACE ( 'NONE', ( #17 ), #18, .T. ) ;
#144 = EDGE_LOOP ( 'NONE', ( #113 ) ) ;
#145 = CIRCLE ( 'NONE', #173, 1.599999999999994982 ) ;
#146 = PERSON_AND_ORGANIZATION ( #217, #227 ) ;
#147 = COORDINATED_UNIVERSAL_TIME_OFFSET ( 1, 0, .AHEAD. ) ;
#148 = CIRCLE ( 'NONE', #46, 2.303999999999997605 ) ;
#149 = CARTESIAN_POINT ( 'NONE',  ( -1.746746356209814176E-30, 2.073059892324147668, -5.002880401441815355E-16 ) ) ;
#150 = CC_DESIGN_DATE_AND_TIME_ASSIGNMENT ( #198, #27, ( #221 ) ) ;
#151 = APPLICATION_CONTEXT ( 'configuration controlled 3d designs of mechanical parts and assemblies' ) ;
#152 = AXIS2_PLACEMENT_3D ( 'NONE', #79, #38, #161 ) ;
#153 = EDGE_LOOP ( 'NONE', ( #191 ) ) ;
#154 = EDGE_LOOP ( 'NONE', ( #192 ) ) ;
#155 =( NAMED_UNIT ( * ) SI_UNIT ( $, .STERADIAN. ) SOLID_ANGLE_UNIT ( ) );
#156 = APPROVAL_PERSON_ORGANIZATION ( #146, #169, #200 ) ;
#157 = ADVANCED_FACE ( 'NONE', ( #203 ), #94, .T. ) ;
#158 = MANIFOLD_SOLID_BREP ( 'Corps-Déplacer/Copier1[1]', #78 ) ;
#159 = CARTESIAN_POINT ( 'NONE',  ( 2.793185071074506684E-13, -7.225416114969383207E-15, 80.00000000000000000 ) ) ;
#160 = DIRECTION ( 'NONE',  ( -1.685186581128153530E-30, 1.000000000000000000, -4.826566198078328473E-16 ) ) ;
#161 = DIRECTION ( 'NONE',  ( -2.674902700537837694E-30, 1.000000000000000000, -7.529181753371587056E-16 ) ) ;
#162 = CARTESIAN_POINT ( 'NONE',  ( 2.779219145719134403E-13, -7.189289034394536528E-15, 79.60000000000000853 ) ) ;
#163 = DIRECTION ( 'NONE',  ( 1.000000000000000000, 0.0000000000000000000, 0.0000000000000000000 ) ) ;
#164 = DIRECTION ( 'NONE',  ( -3.153425691349006731E-31, -1.000000000000000000, -9.031770143711729009E-17 ) ) ;
#165 = EDGE_CURVE ( 'NONE', #100, #100, #107, .T. ) ;
#166 = DATE_AND_TIME ( #182, #92 ) ;
#167 = LOCAL_TIME ( 11, 3, 2.000000000000000000, #31 ) ;
#168 = FACE_OUTER_BOUND ( 'NONE', #21, .T. ) ;
#169 = APPROVAL ( #195, 'UNSPECIFIED' ) ;
#170 = CC_DESIGN_APPROVAL ( #169, ( #16 ) ) ;
#171 = ADVANCED_FACE ( 'NONE', ( #132, #168 ), #243, .T. ) ;
#172 = DIRECTION ( 'NONE',  ( 0.0000000000000000000, 1.000000000000000000, 0.0000000000000000000 ) ) ;
#173 = AXIS2_PLACEMENT_3D ( 'NONE', #90, #112, #205 ) ;
#174 =( NAMED_UNIT ( * ) PLANE_ANGLE_UNIT ( ) SI_UNIT ( $, .RADIAN. ) );
#175 = CC_DESIGN_PERSON_AND_ORGANIZATION_ASSIGNMENT ( #196, #49, ( #16 ) ) ;
#176 = PRODUCT ( '321364', '321364', '', ( #88 ) ) ;
#177 = VERTEX_POINT ( 'NONE', #95 ) ;
#178 = CARTESIAN_POINT ( 'NONE',  ( 0.0000000000000000000, 0.0000000000000000000, 0.0000000000000000000 ) ) ;
#179 = AXIS2_PLACEMENT_3D ( 'NONE', #82, #62, #66 ) ;
#180 = APPROVAL_STATUS ( 'not_yet_approved' ) ;
#181 = CALENDAR_DATE ( 2021, 26, 11 ) ;
#182 = CALENDAR_DATE ( 2021, 26, 11 ) ;
#183 = DIRECTION ( 'NONE',  ( 0.0000000000000000000, 1.000000000000000000, 0.0000000000000000000 ) ) ;
#184 = SHAPE_DEFINITION_REPRESENTATION ( #108, #56 ) ;
#185 = EDGE_CURVE ( 'NONE', #177, #177, #98, .T. ) ;
#186 = DIRECTION ( 'NONE',  ( 0.0000000000000000000, 1.000000000000000000, 0.0000000000000000000 ) ) ;
#187 = LOCAL_TIME ( 11, 3, 2.000000000000000000, #147 ) ;
#188 = DIRECTION ( 'NONE',  ( 3.491481338843133355E-15, 4.826566198078328473E-16, 1.000000000000000000 ) ) ;
#189 = CARTESIAN_POINT ( 'NONE',  ( 4.885231259955590439E-14, 1.999999999999990452, 13.99185842870425134 ) ) ;
#190 = APPLICATION_PROTOCOL_DEFINITION ( 'international standard', 'config_control_design', 1994, #151 ) ;
#191 = ORIENTED_EDGE ( 'NONE', *, *, #201, .F. ) ;
#192 = ORIENTED_EDGE ( 'NONE', *, *, #118, .T. ) ;
#193 = VERTEX_POINT ( 'NONE', #19 ) ;
#194 = ADVANCED_FACE ( 'NONE', ( #231, #207 ), #52, .T. ) ;
#195 = APPROVAL_STATUS ( 'not_yet_approved' ) ;
#196 = PERSON_AND_ORGANIZATION ( #217, #227 ) ;
#197 = DIRECTION ( 'NONE',  ( 3.491481338843133355E-15, -9.031770143711729009E-17, 1.000000000000000000 ) ) ;
#198 = DATE_AND_TIME ( #181, #6 ) ;
#199 = EDGE_LOOP ( 'NONE', ( #8 ) ) ;
#200 = APPROVAL_ROLE ( '' ) ;
#201 = EDGE_CURVE ( 'NONE', #9, #9, #58, .T. ) ;
#202 = PERSON_AND_ORGANIZATION ( #217, #227 ) ;
#203 = FACE_OUTER_BOUND ( 'NONE', #153, .T. ) ;
#204 = AXIS2_PLACEMENT_3D ( 'NONE', #55, #110, #186 ) ;
#205 = DIRECTION ( 'NONE',  ( 0.0000000000000000000, 1.000000000000000000, 0.0000000000000000000 ) ) ;
#206 = CC_DESIGN_PERSON_AND_ORGANIZATION_ASSIGNMENT ( #23, #109, ( #221 ) ) ;
#207 = FACE_BOUND ( 'NONE', #144, .T. ) ;
#208 = DIRECTION ( 'NONE',  ( -1.671814187836143829E-30, 1.000000000000000000, -4.941025525650090570E-16 ) ) ;
#209 = APPROVAL ( #180, 'UNSPECIFIED' ) ;
#210 = CARTESIAN_POINT ( 'NONE',  ( 4.701389598549913253E-14, 2.303999999999998050, 13.46531498320329234 ) ) ;
#211 =( GEOMETRIC_REPRESENTATION_CONTEXT ( 3 ) GLOBAL_UNCERTAINTY_ASSIGNED_CONTEXT ( ( #89 ) ) GLOBAL_UNIT_ASSIGNED_CONTEXT ( ( #117, #174, #155 ) ) REPRESENTATION_CONTEXT ( 'NONE', 'WORKASPACE' ) );
#212 = CARTESIAN_POINT ( 'NONE',  ( 1.396592535537256892E-15, 1.930626479231336418E-16, 0.4000000000000010214 ) ) ;
#213 = CYLINDRICAL_SURFACE ( 'NONE', #122, 2.303999999999994497 ) ;
#214 = ORIENTED_EDGE ( 'NONE', *, *, #165, .T. ) ;
#215 = CARTESIAN_POINT ( 'NONE',  ( 0.0000000000000000000, 0.0000000000000000000, 0.0000000000000000000 ) ) ;
#216 = DIRECTION ( 'NONE',  ( -3.491481338843133355E-15, -4.826566198078328473E-16, -1.000000000000000000 ) ) ;
#217 = PERSON ( 'UNSPECIFIED', 'UNSPECIFIED', 'UNSPECIFIED', ('UNSPECIFIED'), ('UNSPECIFIED'), ('UNSPECIFIED') ) ;
#218 = PERSON_AND_ORGANIZATION_ROLE ( 'design_supplier' ) ;
#219 = CC_DESIGN_DATE_AND_TIME_ASSIGNMENT ( #12, #71, ( #51 ) ) ;
#220 = CALENDAR_DATE ( 2021, 26, 11 ) ;
#221 = SECURITY_CLASSIFICATION ( '', '', #87 ) ;
#222 = CONICAL_SURFACE ( 'NONE', #73, 1.999999999999995337, 0.7853981633974516097 ) ;
#223 = DIRECTION ( 'NONE',  ( 3.153425691349006731E-31, 1.000000000000000000, 9.031770143711729009E-17 ) ) ;
#224 = EDGE_LOOP ( 'NONE', ( #41 ) ) ;
#225 = ORIENTED_EDGE ( 'NONE', *, *, #54, .F. ) ;
#226 = EDGE_LOOP ( 'NONE', ( #43 ) ) ;
#227 = ORGANIZATION ( 'UNSPECIFIED', 'UNSPECIFIED', '' ) ;
#228 = CC_DESIGN_APPROVAL ( #131, ( #221 ) ) ;
#229 = CC_DESIGN_PERSON_AND_ORGANIZATION_ASSIGNMENT ( #47, #123, ( #51 ) ) ;
#230 = FACE_OUTER_BOUND ( 'NONE', #135, .T. ) ;
#231 = FACE_OUTER_BOUND ( 'NONE', #59, .T. ) ;
#232 = CLOSED_SHELL ( 'NONE', ( #157, #116, #194, #143 ) ) ;
#233 = CARTESIAN_POINT ( 'NONE',  ( 1.396592535537253145E-15, 2.303999999999997605, 0.3999999999999999112 ) ) ;
#234 = CARTESIAN_POINT ( 'NONE',  ( 3.493492712419628352E-30, 4.829346687725520411E-31, 1.000576080288363071E-15 ) ) ;
#235 = APPLICATION_PROTOCOL_DEFINITION ( 'international standard', 'config_control_design', 1994, #86 ) ;
#236 = DIRECTION ( 'NONE',  ( -3.491481338843133355E-15, -4.826566198078328473E-16, -1.000000000000000000 ) ) ;
#237 = PERSON_AND_ORGANIZATION_ROLE ( 'design_owner' ) ;
#238 = DATE_AND_TIME ( #220, #133 ) ;
#239 = MANIFOLD_SOLID_BREP ( 'Corps-Déplacer/Copier1[2]', #232 ) ;
#240 = EDGE_CURVE ( 'NONE', #83, #83, #148, .T. ) ;
#241 = AXIS2_PLACEMENT_3D ( 'NONE', #53, #36, #3 ) ;
#242 = CC_DESIGN_SECURITY_CLASSIFICATION ( #221, ( #16 ) ) ;
#243 = CYLINDRICAL_SURFACE ( 'NONE', #241, 1.999999999999993561 ) ;
ENDSEC;
END-ISO-10303-21;
