ISO-10303-21;
HEADER;
FILE_DESCRIPTION (( 'STEP AP203' ),
    '1' );
FILE_NAME ('321363.step',
    '2021-11-26T10:03:02',
    ( '' ),
    ( '' ),
    'SwSTEP 2.0',
    'SolidWorks 2019',
    '' );
FILE_SCHEMA (( 'CONFIG_CONTROL_DESIGN' ));
ENDSEC;

DATA;
#1 = MANIFOLD_SOLID_BREP ( 'Corps-Déplacer/Copier1[1]', #138 ) ;
#2 = LOCAL_TIME ( 11, 3, 2.000000000000000000, #112 ) ;
#3 = CARTESIAN_POINT ( 'NONE',  ( 2.793185071074506684E-13, -7.225416114969383207E-15, 80.00000000000000000 ) ) ;
#4 = DIRECTION ( 'NONE',  ( 3.153425691349006731E-31, 1.000000000000000000, 9.031770143711729009E-17 ) ) ;
#5 = CC_DESIGN_DATE_AND_TIME_ASSIGNMENT ( #238, #75, ( #114 ) ) ;
#6 = CARTESIAN_POINT ( 'NONE',  ( 3.481690082873012264E-30, 4.808367560381257501E-31, 9.971956728334210376E-16 ) ) ;
#7 = DIRECTION ( 'NONE',  ( 0.0000000000000000000, 0.0000000000000000000, 1.000000000000000000 ) ) ;
#8 = AXIS2_PLACEMENT_3D ( 'NONE', #41, #189, #82 ) ;
#9 = VERTEX_POINT ( 'NONE', #104 ) ;
#10 = CARTESIAN_POINT ( 'NONE',  ( 2.793185071074506684E-13, 1.599999999999987876, 80.00000000000000000 ) ) ;
#11 = EDGE_CURVE ( 'NONE', #9, #9, #36, .T. ) ;
#12 = CIRCLE ( 'NONE', #194, 2.298999999999998600 ) ;
#13 = PERSON_AND_ORGANIZATION ( #49, #86 ) ;
#14 = ORIENTED_EDGE ( 'NONE', *, *, #134, .T. ) ;
#15 = CC_DESIGN_PERSON_AND_ORGANIZATION_ASSIGNMENT ( #71, #57, ( #94 ) ) ;
#16 = DIRECTION ( 'NONE',  ( 1.000000000000000000, 0.0000000000000000000, 0.0000000000000000000 ) ) ;
#17 = DIRECTION ( 'NONE',  ( 3.491481338843133355E-15, -9.031770143711729009E-17, 1.000000000000000000 ) ) ;
#18 = COORDINATED_UNIVERSAL_TIME_OFFSET ( 1, 0, .AHEAD. ) ;
#19 = EDGE_LOOP ( 'NONE', ( #195 ) ) ;
#20 = APPROVAL_PERSON_ORGANIZATION ( #213, #207, #89 ) ;
#21 = SHAPE_DEFINITION_REPRESENTATION ( #122, #33 ) ;
#22 = DIRECTION ( 'NONE',  ( -3.491481338843133355E-15, 9.031770143711729009E-17, -1.000000000000000000 ) ) ;
#23 = PERSON_AND_ORGANIZATION ( #49, #86 ) ;
#24 = CARTESIAN_POINT ( 'NONE',  ( 4.704413310086190758E-14, -1.216938472648256437E-15, 13.47397523724113633 ) ) ;
#25 = CIRCLE ( 'NONE', #85, 1.999999999999991784 ) ;
#26 = FACE_OUTER_BOUND ( 'NONE', #152, .T. ) ;
#27 = EDGE_CURVE ( 'NONE', #231, #231, #169, .T. ) ;
#28 = PLANE ( 'NONE',  #8 ) ;
#29 = FACE_OUTER_BOUND ( 'NONE', #149, .T. ) ;
#30 = AXIS2_PLACEMENT_3D ( 'NONE', #24, #22, #70 ) ;
#31 = APPROVAL ( #79, 'UNSPECIFIED' ) ;
#32 = DIRECTION ( 'NONE',  ( 3.491481338843133355E-15, 4.821889716708069436E-16, 1.000000000000000000 ) ) ;
#33 = ADVANCED_BREP_SHAPE_REPRESENTATION ( '321363', ( #1, #83, #58 ), #191 ) ;
#34 = DATE_AND_TIME ( #125, #155 ) ;
#35 = ORIENTED_EDGE ( 'NONE', *, *, #107, .T. ) ;
#36 = CIRCLE ( 'NONE', #30, 2.298999999999999488 ) ;
#37 = EDGE_LOOP ( 'NONE', ( #109 ) ) ;
#38 = APPROVAL_DATE_TIME ( #34, #207 ) ;
#39 = EDGE_LOOP ( 'NONE', ( #197 ) ) ;
#40 = DIRECTION ( 'NONE',  ( -3.491481338843133355E-15, 9.031770143711729009E-17, -1.000000000000000000 ) ) ;
#41 = CARTESIAN_POINT ( 'NONE',  ( 4.704413310086189496E-14, 6.497002263963218305E-15, 13.47397523724113277 ) ) ;
#42 = CARTESIAN_POINT ( 'NONE',  ( 1.396592535537256695E-15, 1.928755886683232606E-16, 0.4000000000000010214 ) ) ;
#43 = AXIS2_PLACEMENT_3D ( 'NONE', #3, #45, #46 ) ;
#44 = CARTESIAN_POINT ( 'NONE',  ( 4.704413310086191389E-14, 6.497002263963221460E-15, 13.47397523724113810 ) ) ;
#45 = DIRECTION ( 'NONE',  ( -3.491481338843133355E-15, 9.031770143711729009E-17, -1.000000000000000000 ) ) ;
#46 = DIRECTION ( 'NONE',  ( 0.0000000000000000000, 1.000000000000000000, 0.0000000000000000000 ) ) ;
#47 = AXIS2_PLACEMENT_3D ( 'NONE', #182, #93, #219 ) ;
#48 = DIRECTION ( 'NONE',  ( 0.0000000000000000000, 1.000000000000000000, 0.0000000000000000000 ) ) ;
#49 = PERSON ( 'UNSPECIFIED', 'UNSPECIFIED', 'UNSPECIFIED', ('UNSPECIFIED'), ('UNSPECIFIED'), ('UNSPECIFIED') ) ;
#50 = CIRCLE ( 'NONE', #167, 1.999999999999995337 ) ;
#51 = COORDINATED_UNIVERSAL_TIME_OFFSET ( 1, 0, .AHEAD. ) ;
#52 = DATE_AND_TIME ( #128, #222 ) ;
#53 = ADVANCED_FACE ( 'NONE', ( #110 ), #180, .T. ) ;
#54 = ORIENTED_EDGE ( 'NONE', *, *, #134, .F. ) ;
#55 = PERSON_AND_ORGANIZATION_ROLE ( 'design_owner' ) ;
#56 = FACE_BOUND ( 'NONE', #186, .T. ) ;
#57 = PERSON_AND_ORGANIZATION_ROLE ( 'creator' ) ;
#58 = AXIS2_PLACEMENT_3D ( 'NONE', #171, #7, #16 ) ;
#59 = ORIENTED_EDGE ( 'NONE', *, *, #140, .F. ) ;
#60 = ADVANCED_FACE ( 'NONE', ( #73 ), #145, .T. ) ;
#61 = DIRECTION ( 'NONE',  ( -3.491481338843133355E-15, -4.821889716708069436E-16, -1.000000000000000000 ) ) ;
#62 = CONICAL_SURFACE ( 'NONE', #176, 2.068059892324148663, 0.5235987755982979275 ) ;
#63 = APPLICATION_CONTEXT ( 'configuration controlled 3d designs of mechanical parts and assemblies' ) ;
#64 = DIRECTION ( 'NONE',  ( 0.0000000000000000000, 1.000000000000000000, 0.0000000000000000000 ) ) ;
#65 = CC_DESIGN_PERSON_AND_ORGANIZATION_ASSIGNMENT ( #23, #196, ( #76 ) ) ;
#66 = DESIGN_CONTEXT ( 'detailed design', #63, 'design' ) ;
#67 = VERTEX_POINT ( 'NONE', #208 ) ;
#68 = AXIS2_PLACEMENT_3D ( 'NONE', #87, #120, #48 ) ;
#69 = EDGE_CURVE ( 'NONE', #67, #67, #50, .T. ) ;
#70 = DIRECTION ( 'NONE',  ( 0.0000000000000000000, 1.000000000000000000, 0.0000000000000000000 ) ) ;
#71 = PERSON_AND_ORGANIZATION ( #49, #86 ) ;
#72 = ADVANCED_FACE ( 'NONE', ( #56, #131 ), #184, .T. ) ;
#73 = FACE_OUTER_BOUND ( 'NONE', #214, .T. ) ;
#74 = AXIS2_PLACEMENT_3D ( 'NONE', #118, #154, #4 ) ;
#75 = DATE_TIME_ROLE ( 'classification_date' ) ;
#76 = PRODUCT_DEFINITION ( 'UNKNOWN', '', #94, #66 ) ;
#77 = DIRECTION ( 'NONE',  ( -3.491481338843133355E-15, 9.031770143711729009E-17, -1.000000000000000000 ) ) ;
#78 = ADVANCED_FACE ( 'NONE', ( #96 ), #164, .T. ) ;
#79 = APPROVAL_STATUS ( 'not_yet_approved' ) ;
#80 = DIRECTION ( 'NONE',  ( -3.491481338843133355E-15, 9.031770143711729009E-17, -1.000000000000000000 ) ) ;
#81 = AXIS2_PLACEMENT_3D ( 'NONE', #241, #80, #224 ) ;
#82 = DIRECTION ( 'NONE',  ( 1.683553796384582671E-30, -1.000000000000000000, 4.821889716708069436E-16 ) ) ;
#83 = MANIFOLD_SOLID_BREP ( 'Corps-Déplacer/Copier1[2]', #206 ) ;
#84 =( LENGTH_UNIT ( ) NAMED_UNIT ( * ) SI_UNIT ( .MILLI., .METRE. ) );
#85 = AXIS2_PLACEMENT_3D ( 'NONE', #168, #156, #64 ) ;
#86 = ORGANIZATION ( 'UNSPECIFIED', 'UNSPECIFIED', '' ) ;
#87 = CARTESIAN_POINT ( 'NONE',  ( 2.779219145719134403E-13, -7.189289034394536528E-15, 79.60000000000000853 ) ) ;
#88 = AXIS2_PLACEMENT_3D ( 'NONE', #239, #161, #223 ) ;
#89 = APPROVAL_ROLE ( '' ) ;
#90 = ORIENTED_EDGE ( 'NONE', *, *, #27, .T. ) ;
#91 = ORIENTED_EDGE ( 'NONE', *, *, #11, .T. ) ;
#92 = PERSON_AND_ORGANIZATION ( #49, #86 ) ;
#93 = DIRECTION ( 'NONE',  ( -3.491481338843133355E-15, -4.821889716708069436E-16, -1.000000000000000000 ) ) ;
#94 = PRODUCT_DEFINITION_FORMATION_WITH_SPECIFIED_SOURCE ( 'ANY', '', #217, .NOT_KNOWN. ) ;
#95 = CALENDAR_DATE ( 2021, 26, 11 ) ;
#96 = FACE_OUTER_BOUND ( 'NONE', #178, .T. ) ;
#97 = ORIENTED_EDGE ( 'NONE', *, *, #203, .T. ) ;
#98 = FACE_OUTER_BOUND ( 'NONE', #133, .T. ) ;
#99 = AXIS2_PLACEMENT_3D ( 'NONE', #227, #188, #100 ) ;
#100 = DIRECTION ( 'NONE',  ( -1.683553796384582671E-30, 1.000000000000000000, -4.821889716708069436E-16 ) ) ;
#101 = CC_DESIGN_SECURITY_CLASSIFICATION ( #114, ( #94 ) ) ;
#102 = DIRECTION ( 'NONE',  ( -1.675450147357317929E-30, 1.000000000000000000, -4.715972912072662274E-16 ) ) ;
#103 = CARTESIAN_POINT ( 'NONE',  ( 4.704413310086190758E-14, 2.298999999999998156, 13.47397523724113633 ) ) ;
#104 = CARTESIAN_POINT ( 'NONE',  ( 4.704413310086190758E-14, 2.298999999999998156, 13.47397523724113633 ) ) ;
#105 = UNCERTAINTY_MEASURE_WITH_UNIT (LENGTH_MEASURE( 1.000000000000000082E-05 ), #84, 'distance_accuracy_value', 'NONE');
#106 = PRODUCT_RELATED_PRODUCT_CATEGORY ( 'detail', '', ( #217 ) ) ;
#107 = EDGE_CURVE ( 'NONE', #121, #121, #12, .T. ) ;
#108 = PERSON_AND_ORGANIZATION ( #49, #86 ) ;
#109 = ORIENTED_EDGE ( 'NONE', *, *, #69, .F. ) ;
#110 = FACE_OUTER_BOUND ( 'NONE', #115, .T. ) ;
#111 = PERSON_AND_ORGANIZATION_ROLE ( 'design_supplier' ) ;
#112 = COORDINATED_UNIVERSAL_TIME_OFFSET ( 1, 0, .AHEAD. ) ;
#113 = DIRECTION ( 'NONE',  ( 0.0000000000000000000, 1.000000000000000000, 0.0000000000000000000 ) ) ;
#114 = SECURITY_CLASSIFICATION ( '', '', #193 ) ;
#115 = EDGE_LOOP ( 'NONE', ( #54 ) ) ;
#116 = CYLINDRICAL_SURFACE ( 'NONE', #99, 2.298999999999995048 ) ;
#117 = CIRCLE ( 'NONE', #43, 1.599999999999994982 ) ;
#118 = CARTESIAN_POINT ( 'NONE',  ( 0.0000000000000000000, 0.0000000000000000000, 0.0000000000000000000 ) ) ;
#119 = FACE_OUTER_BOUND ( 'NONE', #19, .T. ) ;
#120 = DIRECTION ( 'NONE',  ( -3.491481338843133355E-15, 9.031770143711729009E-17, -1.000000000000000000 ) ) ;
#121 = VERTEX_POINT ( 'NONE', #230 ) ;
#122 = PRODUCT_DEFINITION_SHAPE ( 'NONE', 'NONE',  #76 ) ;
#123 = VERTEX_POINT ( 'NONE', #103 ) ;
#124 = APPROVAL_STATUS ( 'not_yet_approved' ) ;
#125 = CALENDAR_DATE ( 2021, 26, 11 ) ;
#126 = AXIS2_PLACEMENT_3D ( 'NONE', #44, #61, #136 ) ;
#127 = ORIENTED_EDGE ( 'NONE', *, *, #69, .T. ) ;
#128 = CALENDAR_DATE ( 2021, 26, 11 ) ;
#129 = ORIENTED_EDGE ( 'NONE', *, *, #107, .F. ) ;
#130 = COORDINATED_UNIVERSAL_TIME_OFFSET ( 1, 0, .AHEAD. ) ;
#131 = FACE_OUTER_BOUND ( 'NONE', #221, .T. ) ;
#132 = APPROVAL_ROLE ( '' ) ;
#133 = EDGE_LOOP ( 'NONE', ( #59 ) ) ;
#134 = EDGE_CURVE ( 'NONE', #192, #192, #117, .T. ) ;
#135 = FACE_OUTER_BOUND ( 'NONE', #201, .T. ) ;
#136 = DIRECTION ( 'NONE',  ( -2.680720235771717094E-30, 1.000000000000000000, -7.545556659316283304E-16 ) ) ;
#137 = FACE_BOUND ( 'NONE', #158, .T. ) ;
#138 = CLOSED_SHELL ( 'NONE', ( #53, #210, #151, #72, #78 ) ) ;
#139 =( NAMED_UNIT ( * ) SI_UNIT ( $, .STERADIAN. ) SOLID_ANGLE_UNIT ( ) );
#140 = EDGE_CURVE ( 'NONE', #123, #123, #172, .T. ) ;
#141 = DIRECTION ( 'NONE',  ( 1.683553796384583022E-30, -1.000000000000000000, 4.821889716708069436E-16 ) ) ;
#142 = APPROVAL_PERSON_ORGANIZATION ( #146, #150, #218 ) ;
#143 = DATE_AND_TIME ( #95, #187 ) ;
#144 = CC_DESIGN_APPROVAL ( #31, ( #76 ) ) ;
#145 = PLANE ( 'NONE',  #47 ) ;
#146 = PERSON_AND_ORGANIZATION ( #49, #86 ) ;
#147 = DIRECTION ( 'NONE',  ( 0.0000000000000000000, 1.000000000000000000, 0.0000000000000000000 ) ) ;
#148 = DATE_TIME_ROLE ( 'creation_date' ) ;
#149 = EDGE_LOOP ( 'NONE', ( #35 ) ) ;
#150 = APPROVAL ( #220, 'UNSPECIFIED' ) ;
#151 = ADVANCED_FACE ( 'NONE', ( #26, #119 ), #225, .T. ) ;
#152 = EDGE_LOOP ( 'NONE', ( #127 ) ) ;
#153 = CC_DESIGN_APPROVAL ( #150, ( #114 ) ) ;
#154 = DIRECTION ( 'NONE',  ( -3.491481338843133355E-15, 9.031770143711729009E-17, -1.000000000000000000 ) ) ;
#155 = LOCAL_TIME ( 11, 3, 2.000000000000000000, #236 ) ;
#156 = DIRECTION ( 'NONE',  ( -3.491481338843133355E-15, 9.031770143711729009E-17, -1.000000000000000000 ) ) ;
#157 = CARTESIAN_POINT ( 'NONE',  ( 4.885231259955590439E-14, 1.999999999999990452, 13.99185842870425134 ) ) ;
#158 = EDGE_LOOP ( 'NONE', ( #14 ) ) ;
#159 = ADVANCED_FACE ( 'NONE', ( #98 ), #28, .T. ) ;
#160 = APPROVAL_DATE_TIME ( #52, #31 ) ;
#161 = DIRECTION ( 'NONE',  ( -3.491481338843133355E-15, -4.821889716708069436E-16, -1.000000000000000000 ) ) ;
#162 = PERSON_AND_ORGANIZATION_ROLE ( 'classification_officer' ) ;
#163 = CARTESIAN_POINT ( 'NONE',  ( 2.779219145719134403E-13, -7.189289034394536528E-15, 79.60000000000000853 ) ) ;
#164 = PLANE ( 'NONE',  #81 ) ;
#165 = MECHANICAL_CONTEXT ( 'NONE', #234, 'mechanical' ) ;
#166 = DIRECTION ( 'NONE',  ( -3.153425691349006731E-31, -1.000000000000000000, -9.031770143711729009E-17 ) ) ;
#167 = AXIS2_PLACEMENT_3D ( 'NONE', #163, #77, #147 ) ;
#168 = CARTESIAN_POINT ( 'NONE',  ( 4.885231259955590439E-14, -1.263712492114123682E-15, 13.99185842870425134 ) ) ;
#169 = CIRCLE ( 'NONE', #88, 2.068059892324148663 ) ;
#170 = VERTEX_POINT ( 'NONE', #157 ) ;
#171 = CARTESIAN_POINT ( 'NONE',  ( 0.0000000000000000000, 0.0000000000000000000, 0.0000000000000000000 ) ) ;
#172 = CIRCLE ( 'NONE', #126, 2.298999999999991495 ) ;
#173 = CC_DESIGN_PERSON_AND_ORGANIZATION_ASSIGNMENT ( #92, #55, ( #217 ) ) ;
#174 = FACE_BOUND ( 'NONE', #39, .T. ) ;
#175 = ADVANCED_FACE ( 'NONE', ( #135, #202 ), #116, .T. ) ;
#176 = AXIS2_PLACEMENT_3D ( 'NONE', #6, #32, #141 ) ;
#177 = APPLICATION_PROTOCOL_DEFINITION ( 'international standard', 'config_control_design', 1994, #63 ) ;
#178 = EDGE_LOOP ( 'NONE', ( #91 ) ) ;
#179 = PERSON_AND_ORGANIZATION ( #49, #86 ) ;
#180 = PLANE ( 'NONE',  #215 ) ;
#181 = CALENDAR_DATE ( 2021, 26, 11 ) ;
#182 = CARTESIAN_POINT ( 'NONE',  ( -1.740845041436506132E-30, 2.068059892324148663, -4.985978364167105188E-16 ) ) ;
#183 = CC_DESIGN_PERSON_AND_ORGANIZATION_ASSIGNMENT ( #108, #111, ( #94 ) ) ;
#184 = CONICAL_SURFACE ( 'NONE', #229, 2.298999999999999488, 0.5235987755982913772 ) ;
#185 = APPROVAL_DATE_TIME ( #240, #150 ) ;
#186 = EDGE_LOOP ( 'NONE', ( #97 ) ) ;
#187 = LOCAL_TIME ( 11, 3, 2.000000000000000000, #51 ) ;
#188 = DIRECTION ( 'NONE',  ( -3.491481338843133355E-15, -4.821889716708069436E-16, -1.000000000000000000 ) ) ;
#189 = DIRECTION ( 'NONE',  ( 3.491481338843133355E-15, 4.821889716708069436E-16, 1.000000000000000000 ) ) ;
#190 = APPROVAL_PERSON_ORGANIZATION ( #179, #31, #132 ) ;
#191 =( GEOMETRIC_REPRESENTATION_CONTEXT ( 3 ) GLOBAL_UNCERTAINTY_ASSIGNED_CONTEXT ( ( #105 ) ) GLOBAL_UNIT_ASSIGNED_CONTEXT ( ( #84, #228, #139 ) ) REPRESENTATION_CONTEXT ( 'NONE', 'WORKASPACE' ) );
#192 = VERTEX_POINT ( 'NONE', #10 ) ;
#193 = SECURITY_CLASSIFICATION_LEVEL ( 'unclassified' ) ;
#194 = AXIS2_PLACEMENT_3D ( 'NONE', #42, #243, #102 ) ;
#195 = ORIENTED_EDGE ( 'NONE', *, *, #203, .F. ) ;
#196 = PERSON_AND_ORGANIZATION_ROLE ( 'creator' ) ;
#197 = ORIENTED_EDGE ( 'NONE', *, *, #27, .F. ) ;
#198 = CALENDAR_DATE ( 2021, 26, 11 ) ;
#199 = CARTESIAN_POINT ( 'NONE',  ( 4.704413310086190758E-14, -1.216938472648256437E-15, 13.47397523724113633 ) ) ;
#200 = LOCAL_TIME ( 11, 3, 2.000000000000000000, #130 ) ;
#201 = EDGE_LOOP ( 'NONE', ( #242 ) ) ;
#202 = FACE_OUTER_BOUND ( 'NONE', #235, .T. ) ;
#203 = EDGE_CURVE ( 'NONE', #170, #170, #25, .T. ) ;
#204 = CONICAL_SURFACE ( 'NONE', #68, 1.999999999999995337, 0.7853981633974516097 ) ;
#205 = FACE_OUTER_BOUND ( 'NONE', #37, .T. ) ;
#206 = CLOSED_SHELL ( 'NONE', ( #159, #175, #212, #60 ) ) ;
#207 = APPROVAL ( #124, 'UNSPECIFIED' ) ;
#208 = CARTESIAN_POINT ( 'NONE',  ( 2.779219145719134403E-13, 1.999999999999988010, 79.60000000000000853 ) ) ;
#209 = CC_DESIGN_APPROVAL ( #207, ( #94 ) ) ;
#210 = ADVANCED_FACE ( 'NONE', ( #137, #205 ), #204, .T. ) ;
#211 = CARTESIAN_POINT ( 'NONE',  ( 0.0000000000000000000, 2.068059892324148663, 0.0000000000000000000 ) ) ;
#212 = ADVANCED_FACE ( 'NONE', ( #29, #174 ), #62, .T. ) ;
#213 = PERSON_AND_ORGANIZATION ( #49, #86 ) ;
#214 = EDGE_LOOP ( 'NONE', ( #90 ) ) ;
#215 = AXIS2_PLACEMENT_3D ( 'NONE', #237, #17, #166 ) ;
#216 = ORIENTED_EDGE ( 'NONE', *, *, #11, .F. ) ;
#217 = PRODUCT ( '321363', '321363', '', ( #165 ) ) ;
#218 = APPROVAL_ROLE ( '' ) ;
#219 = DIRECTION ( 'NONE',  ( -1.683553796384582671E-30, 1.000000000000000000, -4.821889716708069436E-16 ) ) ;
#220 = APPROVAL_STATUS ( 'not_yet_approved' ) ;
#221 = EDGE_LOOP ( 'NONE', ( #216 ) ) ;
#222 = LOCAL_TIME ( 11, 3, 2.000000000000000000, #18 ) ;
#223 = DIRECTION ( 'NONE',  ( -1.683553796384583022E-30, 1.000000000000000000, -4.821889716708069436E-16 ) ) ;
#224 = DIRECTION ( 'NONE',  ( 3.153425691349006731E-31, 1.000000000000000000, 9.031770143711729009E-17 ) ) ;
#225 = CYLINDRICAL_SURFACE ( 'NONE', #74, 1.999999999999993561 ) ;
#226 = CC_DESIGN_DATE_AND_TIME_ASSIGNMENT ( #143, #148, ( #76 ) ) ;
#227 = CARTESIAN_POINT ( 'NONE',  ( 0.0000000000000000000, 0.0000000000000000000, 0.0000000000000000000 ) ) ;
#228 =( NAMED_UNIT ( * ) PLANE_ANGLE_UNIT ( ) SI_UNIT ( $, .RADIAN. ) );
#229 = AXIS2_PLACEMENT_3D ( 'NONE', #199, #40, #113 ) ;
#230 = CARTESIAN_POINT ( 'NONE',  ( 1.396592535537252948E-15, 2.298999999999998600, 0.3999999999999999112 ) ) ;
#231 = VERTEX_POINT ( 'NONE', #211 ) ;
#232 = CC_DESIGN_PERSON_AND_ORGANIZATION_ASSIGNMENT ( #13, #162, ( #114 ) ) ;
#233 = APPLICATION_PROTOCOL_DEFINITION ( 'international standard', 'config_control_design', 1994, #234 ) ;
#234 = APPLICATION_CONTEXT ( 'configuration controlled 3d designs of mechanical parts and assemblies' ) ;
#235 = EDGE_LOOP ( 'NONE', ( #129 ) ) ;
#236 = COORDINATED_UNIVERSAL_TIME_OFFSET ( 1, 0, .AHEAD. ) ;
#237 = CARTESIAN_POINT ( 'NONE',  ( 2.793185071074506684E-13, -7.225416114969383207E-15, 80.00000000000000000 ) ) ;
#238 = DATE_AND_TIME ( #181, #2 ) ;
#239 = CARTESIAN_POINT ( 'NONE',  ( 3.481690082873012264E-30, 4.808367560381257501E-31, 9.971956728334210376E-16 ) ) ;
#240 = DATE_AND_TIME ( #198, #200 ) ;
#241 = CARTESIAN_POINT ( 'NONE',  ( 4.704413310086189496E-14, 2.298999999999998156, 13.47397523724113277 ) ) ;
#242 = ORIENTED_EDGE ( 'NONE', *, *, #140, .T. ) ;
#243 = DIRECTION ( 'NONE',  ( -3.491481338843133355E-15, -4.821889716708069436E-16, -1.000000000000000000 ) ) ;
ENDSEC;
END-ISO-10303-21;
