ISO-10303-21;
HEADER;
FILE_DESCRIPTION (( 'STEP AP203' ),
    '1' );
FILE_NAME ('321362.step',
    '2021-11-26T10:03:01',
    ( '' ),
    ( '' ),
    'SwSTEP 2.0',
    'SolidWorks 2019',
    '' );
FILE_SCHEMA (( 'CONFIG_CONTROL_DESIGN' ));
ENDSEC;

DATA;
#1 = CARTESIAN_POINT ( 'NONE',  ( 4.707437021622468893E-14, 6.494881113485761905E-15, 13.48263549127898209 ) ) ;
#2 = DIRECTION ( 'NONE',  ( -3.491481338843133355E-15, 9.031770143711729009E-17, -1.000000000000000000 ) ) ;
#3 = CARTESIAN_POINT ( 'NONE',  ( 3.469908108569468322E-30, 4.787454518533621792E-31, 9.938211812752195176E-16 ) ) ;
#4 = EDGE_LOOP ( 'NONE', ( #67 ) ) ;
#5 = CARTESIAN_POINT ( 'NONE',  ( 4.707437021622468893E-14, 2.293999999999998263, 13.48263549127898209 ) ) ;
#6 = DIRECTION ( 'NONE',  ( -3.491481338843133355E-15, 9.031770143711729009E-17, -1.000000000000000000 ) ) ;
#7 = CC_DESIGN_PERSON_AND_ORGANIZATION_ASSIGNMENT ( #129, #53, ( #240 ) ) ;
#8 = ORIENTED_EDGE ( 'NONE', *, *, #25, .T. ) ;
#9 = VERTEX_POINT ( 'NONE', #72 ) ;
#10 = EDGE_LOOP ( 'NONE', ( #90 ) ) ;
#11 = APPROVAL ( #206, 'UNSPECIFIED' ) ;
#12 = PERSON_AND_ORGANIZATION ( #44, #193 ) ;
#13 = DATE_TIME_ROLE ( 'creation_date' ) ;
#14 = FACE_OUTER_BOUND ( 'NONE', #143, .T. ) ;
#15 = VERTEX_POINT ( 'NONE', #56 ) ;
#16 = AXIS2_PLACEMENT_3D ( 'NONE', #141, #2, #106 ) ;
#17 = CALENDAR_DATE ( 2021, 26, 11 ) ;
#18 = CIRCLE ( 'NONE', #87, 1.999999999999991784 ) ;
#19 = FACE_OUTER_BOUND ( 'NONE', #164, .T. ) ;
#20 = CIRCLE ( 'NONE', #57, 2.293999999999997819 ) ;
#21 = FACE_OUTER_BOUND ( 'NONE', #166, .T. ) ;
#22 = PERSON_AND_ORGANIZATION ( #44, #193 ) ;
#23 = FACE_OUTER_BOUND ( 'NONE', #4, .T. ) ;
#24 = CARTESIAN_POINT ( 'NONE',  ( 0.0000000000000000000, 0.0000000000000000000, 0.0000000000000000000 ) ) ;
#25 = EDGE_CURVE ( 'NONE', #15, #15, #75, .T. ) ;
#26 = ORIENTED_EDGE ( 'NONE', *, *, #33, .F. ) ;
#27 = ORIENTED_EDGE ( 'NONE', *, *, #33, .T. ) ;
#28 = ADVANCED_FACE ( 'NONE', ( #175, #19 ), #125, .T. ) ;
#29 = APPROVAL_STATUS ( 'not_yet_approved' ) ;
#30 = LOCAL_TIME ( 11, 3, 1.000000000000000000, #48 ) ;
#31 = DIRECTION ( 'NONE',  ( -3.491481338843133355E-15, 9.031770143711729009E-17, -1.000000000000000000 ) ) ;
#32 = APPROVAL_ROLE ( '' ) ;
#33 = EDGE_CURVE ( 'NONE', #148, #148, #121, .T. ) ;
#34 = LOCAL_TIME ( 11, 3, 1.000000000000000000, #50 ) ;
#35 = PRODUCT_DEFINITION ( 'UNKNOWN', '', #240, #204 ) ;
#36 = DIRECTION ( 'NONE',  ( -3.491481338843133355E-15, -4.817219242993602839E-16, -1.000000000000000000 ) ) ;
#37 = DIRECTION ( 'NONE',  ( 3.491481338843133355E-15, 4.817219242993602839E-16, 1.000000000000000000 ) ) ;
#38 = CIRCLE ( 'NONE', #210, 2.293999999999991601 ) ;
#39 = CC_DESIGN_SECURITY_CLASSIFICATION ( #135, ( #240 ) ) ;
#40 = CALENDAR_DATE ( 2021, 26, 11 ) ;
#41 = DIRECTION ( 'NONE',  ( 1.681923109202821021E-30, -1.000000000000000000, 4.817219242993602839E-16 ) ) ;
#42 =( NAMED_UNIT ( * ) SI_UNIT ( $, .STERADIAN. ) SOLID_ANGLE_UNIT ( ) );
#43 = FACE_OUTER_BOUND ( 'NONE', #122, .T. ) ;
#44 = PERSON ( 'UNSPECIFIED', 'UNSPECIFIED', 'UNSPECIFIED', ('UNSPECIFIED'), ('UNSPECIFIED'), ('UNSPECIFIED') ) ;
#45 = AXIS2_PLACEMENT_3D ( 'NONE', #1, #37, #41 ) ;
#46 = EDGE_LOOP ( 'NONE', ( #182 ) ) ;
#47 = APPROVAL ( #29, 'UNSPECIFIED' ) ;
#48 = COORDINATED_UNIVERSAL_TIME_OFFSET ( 1, 0, .AHEAD. ) ;
#49 = FACE_OUTER_BOUND ( 'NONE', #231, .T. ) ;
#50 = COORDINATED_UNIVERSAL_TIME_OFFSET ( 1, 0, .AHEAD. ) ;
#51 = AXIS2_PLACEMENT_3D ( 'NONE', #24, #205, #239 ) ;
#52 = AXIS2_PLACEMENT_3D ( 'NONE', #119, #6, #232 ) ;
#53 = PERSON_AND_ORGANIZATION_ROLE ( 'creator' ) ;
#54 = EDGE_CURVE ( 'NONE', #77, #77, #18, .T. ) ;
#55 = CALENDAR_DATE ( 2021, 26, 11 ) ;
#56 = CARTESIAN_POINT ( 'NONE',  ( 2.793185071074506684E-13, 1.599999999999987876, 80.00000000000000000 ) ) ;
#57 = AXIS2_PLACEMENT_3D ( 'NONE', #194, #102, #211 ) ;
#58 = CC_DESIGN_PERSON_AND_ORGANIZATION_ASSIGNMENT ( #76, #190, ( #135 ) ) ;
#59 = ORIENTED_EDGE ( 'NONE', *, *, #149, .F. ) ;
#60 = AXIS2_PLACEMENT_3D ( 'NONE', #100, #161, #196 ) ;
#61 = CARTESIAN_POINT ( 'NONE',  ( 0.0000000000000000000, 0.0000000000000000000, 0.0000000000000000000 ) ) ;
#62 = CC_DESIGN_PERSON_AND_ORGANIZATION_ASSIGNMENT ( #126, #131, ( #240 ) ) ;
#63 = CARTESIAN_POINT ( 'NONE',  ( -1.734954054284734161E-30, 2.063059892324147881, -4.969105906376097588E-16 ) ) ;
#64 = FACE_OUTER_BOUND ( 'NONE', #233, .T. ) ;
#65 =( LENGTH_UNIT ( ) NAMED_UNIT ( * ) SI_UNIT ( .MILLI., .METRE. ) );
#66 = PLANE ( 'NONE',  #45 ) ;
#67 = ORIENTED_EDGE ( 'NONE', *, *, #163, .F. ) ;
#68 = UNCERTAINTY_MEASURE_WITH_UNIT (LENGTH_MEASURE( 1.000000000000000082E-05 ), #65, 'distance_accuracy_value', 'NONE');
#69 = FACE_OUTER_BOUND ( 'NONE', #71, .T. ) ;
#70 = ORIENTED_EDGE ( 'NONE', *, *, #54, .T. ) ;
#71 = EDGE_LOOP ( 'NONE', ( #109 ) ) ;
#72 = CARTESIAN_POINT ( 'NONE',  ( 1.396592535537252948E-15, 2.293999999999997819, 0.3999999999999999112 ) ) ;
#73 = ADVANCED_BREP_SHAPE_REPRESENTATION ( '321362', ( #158, #79, #172 ), #220 ) ;
#74 = APPROVAL_DATE_TIME ( #238, #11 ) ;
#75 = CIRCLE ( 'NONE', #171, 1.599999999999994982 ) ;
#76 = PERSON_AND_ORGANIZATION ( #44, #193 ) ;
#77 = VERTEX_POINT ( 'NONE', #151 ) ;
#78 = ORIENTED_EDGE ( 'NONE', *, *, #54, .F. ) ;
#79 = MANIFOLD_SOLID_BREP ( 'Corps-Déplacer/Copier1[2]', #179 ) ;
#80 = CONICAL_SURFACE ( 'NONE', #184, 2.063059892324147881, 0.5235987755982979275 ) ;
#81 = APPROVAL_PERSON_ORGANIZATION ( #12, #11, #32 ) ;
#82 = CIRCLE ( 'NONE', #52, 1.999999999999995337 ) ;
#83 = CARTESIAN_POINT ( 'NONE',  ( 4.707437021622468893E-14, -1.217720646886816324E-15, 13.48263549127898209 ) ) ;
#84 = FACE_BOUND ( 'NONE', #91, .T. ) ;
#85 = DIRECTION ( 'NONE',  ( 0.0000000000000000000, 1.000000000000000000, 0.0000000000000000000 ) ) ;
#86 = DIRECTION ( 'NONE',  ( -3.491481338843133355E-15, 9.031770143711729009E-17, -1.000000000000000000 ) ) ;
#87 = AXIS2_PLACEMENT_3D ( 'NONE', #101, #86, #85 ) ;
#88 = PERSON_AND_ORGANIZATION ( #44, #193 ) ;
#89 = FACE_OUTER_BOUND ( 'NONE', #225, .T. ) ;
#90 = ORIENTED_EDGE ( 'NONE', *, *, #149, .T. ) ;
#91 = EDGE_LOOP ( 'NONE', ( #70 ) ) ;
#92 = ORIENTED_EDGE ( 'NONE', *, *, #168, .T. ) ;
#93 = AXIS2_PLACEMENT_3D ( 'NONE', #145, #31, #128 ) ;
#94 = APPROVAL_STATUS ( 'not_yet_approved' ) ;
#95 = EDGE_CURVE ( 'NONE', #224, #224, #154, .T. ) ;
#96 = COORDINATED_UNIVERSAL_TIME_OFFSET ( 1, 0, .AHEAD. ) ;
#97 = CC_DESIGN_PERSON_AND_ORGANIZATION_ASSIGNMENT ( #88, #187, ( #35 ) ) ;
#98 = ORIENTED_EDGE ( 'NONE', *, *, #25, .F. ) ;
#99 = LOCAL_TIME ( 11, 3, 1.000000000000000000, #96 ) ;
#100 = CARTESIAN_POINT ( 'NONE',  ( 2.779219145719134403E-13, -7.189289034394536528E-15, 79.60000000000000853 ) ) ;
#101 = CARTESIAN_POINT ( 'NONE',  ( 4.885231259955590439E-14, -1.263712492114123682E-15, 13.99185842870425134 ) ) ;
#102 = DIRECTION ( 'NONE',  ( -3.491481338843133355E-15, -4.817219242993602839E-16, -1.000000000000000000 ) ) ;
#103 = ADVANCED_FACE ( 'NONE', ( #84, #21 ), #167, .T. ) ;
#104 = DATE_AND_TIME ( #40, #221 ) ;
#105 = PERSON_AND_ORGANIZATION ( #44, #193 ) ;
#106 = DIRECTION ( 'NONE',  ( 0.0000000000000000000, 1.000000000000000000, 0.0000000000000000000 ) ) ;
#107 = LOCAL_TIME ( 11, 3, 1.000000000000000000, #219 ) ;
#108 = CC_DESIGN_DATE_AND_TIME_ASSIGNMENT ( #113, #13, ( #35 ) ) ;
#109 = ORIENTED_EDGE ( 'NONE', *, *, #95, .T. ) ;
#110 = VERTEX_POINT ( 'NONE', #120 ) ;
#111 = DATE_AND_TIME ( #147, #99 ) ;
#112 = DIRECTION ( 'NONE',  ( -3.491481338843133355E-15, 9.031770143711729009E-17, -1.000000000000000000 ) ) ;
#113 = DATE_AND_TIME ( #55, #107 ) ;
#114 = AXIS2_PLACEMENT_3D ( 'NONE', #83, #230, #180 ) ;
#115 = APPROVAL_PERSON_ORGANIZATION ( #127, #47, #185 ) ;
#116 = CC_DESIGN_DATE_AND_TIME_ASSIGNMENT ( #170, #150, ( #135 ) ) ;
#117 = DIRECTION ( 'NONE',  ( -1.681923109202821371E-30, 1.000000000000000000, -4.817219242993602839E-16 ) ) ;
#118 = DIRECTION ( 'NONE',  ( -3.491481338843133355E-15, -4.817219242993602839E-16, -1.000000000000000000 ) ) ;
#119 = CARTESIAN_POINT ( 'NONE',  ( 2.779219145719134403E-13, -7.189289034394536528E-15, 79.60000000000000853 ) ) ;
#120 = CARTESIAN_POINT ( 'NONE',  ( 2.779219145719134403E-13, 1.999999999999988010, 79.60000000000000853 ) ) ;
#121 = CIRCLE ( 'NONE', #16, 2.293999999999999595 ) ;
#122 = EDGE_LOOP ( 'NONE', ( #202 ) ) ;
#123 =( NAMED_UNIT ( * ) PLANE_ANGLE_UNIT ( ) SI_UNIT ( $, .RADIAN. ) );
#124 = CARTESIAN_POINT ( 'NONE',  ( 2.793185071074506684E-13, -7.225416114969383207E-15, 80.00000000000000000 ) ) ;
#125 = CONICAL_SURFACE ( 'NONE', #60, 1.999999999999995337, 0.7853981633974516097 ) ;
#126 = PERSON_AND_ORGANIZATION ( #44, #193 ) ;
#127 = PERSON_AND_ORGANIZATION ( #44, #193 ) ;
#128 = DIRECTION ( 'NONE',  ( 3.153425691349006731E-31, 1.000000000000000000, 9.031770143711729009E-17 ) ) ;
#129 = PERSON_AND_ORGANIZATION ( #44, #193 ) ;
#130 = PRODUCT_DEFINITION_SHAPE ( 'NONE', 'NONE',  #35 ) ;
#131 = PERSON_AND_ORGANIZATION_ROLE ( 'design_supplier' ) ;
#132 = PLANE ( 'NONE',  #93 ) ;
#133 = APPROVAL_PERSON_ORGANIZATION ( #105, #234, #169 ) ;
#134 = CARTESIAN_POINT ( 'NONE',  ( 2.793185071074506684E-13, -7.225416114969383207E-15, 80.00000000000000000 ) ) ;
#135 = SECURITY_CLASSIFICATION ( '', '', #241 ) ;
#136 = CARTESIAN_POINT ( 'NONE',  ( 0.0000000000000000000, 2.063059892324147881, 0.0000000000000000000 ) ) ;
#137 = CYLINDRICAL_SURFACE ( 'NONE', #188, 1.999999999999993561 ) ;
#138 = DIRECTION ( 'NONE',  ( -1.681923109202821021E-30, 1.000000000000000000, -4.817219242993602839E-16 ) ) ;
#139 = PERSON_AND_ORGANIZATION_ROLE ( 'design_owner' ) ;
#140 = PLANE ( 'NONE',  #152 ) ;
#141 = CARTESIAN_POINT ( 'NONE',  ( 4.707437021622468893E-14, -1.217720646886816324E-15, 13.48263549127898209 ) ) ;
#142 = ADVANCED_FACE ( 'NONE', ( #23 ), #66, .T. ) ;
#143 = EDGE_LOOP ( 'NONE', ( #27 ) ) ;
#144 = ADVANCED_FACE ( 'NONE', ( #178, #89 ), #137, .T. ) ;
#145 = CARTESIAN_POINT ( 'NONE',  ( 4.707437021622468893E-14, 2.293999999999998263, 13.48263549127898209 ) ) ;
#146 = CC_DESIGN_APPROVAL ( #47, ( #135 ) ) ;
#147 = CALENDAR_DATE ( 2021, 26, 11 ) ;
#148 = VERTEX_POINT ( 'NONE', #242 ) ;
#149 = EDGE_CURVE ( 'NONE', #110, #110, #82, .T. ) ;
#150 = DATE_TIME_ROLE ( 'classification_date' ) ;
#151 = CARTESIAN_POINT ( 'NONE',  ( 4.885231259955590439E-14, 1.999999999999990452, 13.99185842870425134 ) ) ;
#152 = AXIS2_PLACEMENT_3D ( 'NONE', #63, #36, #138 ) ;
#153 = ADVANCED_FACE ( 'NONE', ( #49 ), #212, .T. ) ;
#154 = CIRCLE ( 'NONE', #217, 2.063059892324147881 ) ;
#155 = CC_DESIGN_APPROVAL ( #11, ( #240 ) ) ;
#156 = DIRECTION ( 'NONE',  ( -2.686563130793015297E-30, 1.000000000000000000, -7.562002946716710498E-16 ) ) ;
#157 = ADVANCED_FACE ( 'NONE', ( #69 ), #140, .T. ) ;
#158 = MANIFOLD_SOLID_BREP ( 'Corps-Déplacer/Copier1[1]', #236 ) ;
#159 = DIRECTION ( 'NONE',  ( -3.491481338843133355E-15, 9.031770143711729009E-17, -1.000000000000000000 ) ) ;
#160 = DIRECTION ( 'NONE',  ( 3.491481338843133355E-15, 4.817219242993602839E-16, 1.000000000000000000 ) ) ;
#161 = DIRECTION ( 'NONE',  ( -3.491481338843133355E-15, 9.031770143711729009E-17, -1.000000000000000000 ) ) ;
#162 = DIRECTION ( 'NONE',  ( 0.0000000000000000000, 0.0000000000000000000, 1.000000000000000000 ) ) ;
#163 = EDGE_CURVE ( 'NONE', #235, #235, #38, .T. ) ;
#164 = EDGE_LOOP ( 'NONE', ( #59 ) ) ;
#165 = DIRECTION ( 'NONE',  ( 1.000000000000000000, 0.0000000000000000000, 0.0000000000000000000 ) ) ;
#166 = EDGE_LOOP ( 'NONE', ( #26 ) ) ;
#167 = CONICAL_SURFACE ( 'NONE', #114, 2.293999999999999595, 0.5235987755982937086 ) ;
#168 = EDGE_CURVE ( 'NONE', #9, #9, #20, .T. ) ;
#169 = APPROVAL_ROLE ( '' ) ;
#170 = DATE_AND_TIME ( #17, #30 ) ;
#171 = AXIS2_PLACEMENT_3D ( 'NONE', #134, #112, #174 ) ;
#172 = AXIS2_PLACEMENT_3D ( 'NONE', #229, #162, #165 ) ;
#173 = APPROVAL_DATE_TIME ( #111, #47 ) ;
#174 = DIRECTION ( 'NONE',  ( 0.0000000000000000000, 1.000000000000000000, 0.0000000000000000000 ) ) ;
#175 = FACE_BOUND ( 'NONE', #183, .T. ) ;
#176 = DIRECTION ( 'NONE',  ( 3.491481338843133355E-15, -9.031770143711729009E-17, 1.000000000000000000 ) ) ;
#177 = FACE_BOUND ( 'NONE', #46, .T. ) ;
#178 = FACE_OUTER_BOUND ( 'NONE', #10, .T. ) ;
#179 = CLOSED_SHELL ( 'NONE', ( #142, #197, #191, #157 ) ) ;
#180 = DIRECTION ( 'NONE',  ( 0.0000000000000000000, 1.000000000000000000, 0.0000000000000000000 ) ) ;
#181 = APPLICATION_PROTOCOL_DEFINITION ( 'international standard', 'config_control_design', 1994, #243 ) ;
#182 = ORIENTED_EDGE ( 'NONE', *, *, #95, .F. ) ;
#183 = EDGE_LOOP ( 'NONE', ( #8 ) ) ;
#184 = AXIS2_PLACEMENT_3D ( 'NONE', #3, #160, #228 ) ;
#185 = APPROVAL_ROLE ( '' ) ;
#186 = PRODUCT ( '321362', '321362', '', ( #216 ) ) ;
#187 = PERSON_AND_ORGANIZATION_ROLE ( 'creator' ) ;
#188 = AXIS2_PLACEMENT_3D ( 'NONE', #61, #159, #203 ) ;
#189 = CC_DESIGN_APPROVAL ( #234, ( #35 ) ) ;
#190 = PERSON_AND_ORGANIZATION_ROLE ( 'classification_officer' ) ;
#191 = ADVANCED_FACE ( 'NONE', ( #195, #177 ), #80, .T. ) ;
#192 = APPLICATION_CONTEXT ( 'configuration controlled 3d designs of mechanical parts and assemblies' ) ;
#193 = ORGANIZATION ( 'UNSPECIFIED', 'UNSPECIFIED', '' ) ;
#194 = CARTESIAN_POINT ( 'NONE',  ( 1.396592535537256695E-15, 1.926887697197445967E-16, 0.4000000000000010214 ) ) ;
#195 = FACE_OUTER_BOUND ( 'NONE', #200, .T. ) ;
#196 = DIRECTION ( 'NONE',  ( 0.0000000000000000000, 1.000000000000000000, 0.0000000000000000000 ) ) ;
#197 = ADVANCED_FACE ( 'NONE', ( #43, #64 ), #199, .T. ) ;
#198 = APPROVAL_DATE_TIME ( #104, #234 ) ;
#199 = CYLINDRICAL_SURFACE ( 'NONE', #51, 2.293999999999994710 ) ;
#200 = EDGE_LOOP ( 'NONE', ( #92 ) ) ;
#201 = ADVANCED_FACE ( 'NONE', ( #14 ), #132, .T. ) ;
#202 = ORIENTED_EDGE ( 'NONE', *, *, #163, .T. ) ;
#203 = DIRECTION ( 'NONE',  ( 3.153425691349006731E-31, 1.000000000000000000, 9.031770143711729009E-17 ) ) ;
#204 = DESIGN_CONTEXT ( 'detailed design', #243, 'design' ) ;
#205 = DIRECTION ( 'NONE',  ( -3.491481338843133355E-15, -4.817219242993602839E-16, -1.000000000000000000 ) ) ;
#206 = APPROVAL_STATUS ( 'not_yet_approved' ) ;
#207 = AXIS2_PLACEMENT_3D ( 'NONE', #124, #176, #227 ) ;
#208 = CALENDAR_DATE ( 2021, 26, 11 ) ;
#209 = ORIENTED_EDGE ( 'NONE', *, *, #168, .F. ) ;
#210 = AXIS2_PLACEMENT_3D ( 'NONE', #215, #118, #156 ) ;
#211 = DIRECTION ( 'NONE',  ( -1.679101956745630094E-30, 1.000000000000000000, -4.726251841697931489E-16 ) ) ;
#212 = PLANE ( 'NONE',  #207 ) ;
#213 = PRODUCT_RELATED_PRODUCT_CATEGORY ( 'detail', '', ( #186 ) ) ;
#214 = APPLICATION_PROTOCOL_DEFINITION ( 'international standard', 'config_control_design', 1994, #192 ) ;
#215 = CARTESIAN_POINT ( 'NONE',  ( 4.707437021622469524E-14, 6.494881113485763483E-15, 13.48263549127898386 ) ) ;
#216 = MECHANICAL_CONTEXT ( 'NONE', #192, 'mechanical' ) ;
#217 = AXIS2_PLACEMENT_3D ( 'NONE', #226, #218, #117 ) ;
#218 = DIRECTION ( 'NONE',  ( -3.491481338843133355E-15, -4.817219242993602839E-16, -1.000000000000000000 ) ) ;
#219 = COORDINATED_UNIVERSAL_TIME_OFFSET ( 1, 0, .AHEAD. ) ;
#220 =( GEOMETRIC_REPRESENTATION_CONTEXT ( 3 ) GLOBAL_UNCERTAINTY_ASSIGNED_CONTEXT ( ( #68 ) ) GLOBAL_UNIT_ASSIGNED_CONTEXT ( ( #65, #123, #42 ) ) REPRESENTATION_CONTEXT ( 'NONE', 'WORKASPACE' ) );
#221 = LOCAL_TIME ( 11, 3, 1.000000000000000000, #237 ) ;
#222 = CC_DESIGN_PERSON_AND_ORGANIZATION_ASSIGNMENT ( #22, #139, ( #186 ) ) ;
#223 = SHAPE_DEFINITION_REPRESENTATION ( #130, #73 ) ;
#224 = VERTEX_POINT ( 'NONE', #136 ) ;
#225 = EDGE_LOOP ( 'NONE', ( #78 ) ) ;
#226 = CARTESIAN_POINT ( 'NONE',  ( 3.469908108569468322E-30, 4.787454518533621792E-31, 9.938211812752195176E-16 ) ) ;
#227 = DIRECTION ( 'NONE',  ( -3.153425691349006731E-31, -1.000000000000000000, -9.031770143711729009E-17 ) ) ;
#228 = DIRECTION ( 'NONE',  ( 1.681923109202821371E-30, -1.000000000000000000, 4.817219242993602839E-16 ) ) ;
#229 = CARTESIAN_POINT ( 'NONE',  ( 0.0000000000000000000, 0.0000000000000000000, 0.0000000000000000000 ) ) ;
#230 = DIRECTION ( 'NONE',  ( -3.491481338843133355E-15, 9.031770143711729009E-17, -1.000000000000000000 ) ) ;
#231 = EDGE_LOOP ( 'NONE', ( #98 ) ) ;
#232 = DIRECTION ( 'NONE',  ( 0.0000000000000000000, 1.000000000000000000, 0.0000000000000000000 ) ) ;
#233 = EDGE_LOOP ( 'NONE', ( #209 ) ) ;
#234 = APPROVAL ( #94, 'UNSPECIFIED' ) ;
#235 = VERTEX_POINT ( 'NONE', #5 ) ;
#236 = CLOSED_SHELL ( 'NONE', ( #153, #28, #144, #103, #201 ) ) ;
#237 = COORDINATED_UNIVERSAL_TIME_OFFSET ( 1, 0, .AHEAD. ) ;
#238 = DATE_AND_TIME ( #208, #34 ) ;
#239 = DIRECTION ( 'NONE',  ( -1.681923109202821021E-30, 1.000000000000000000, -4.817219242993603825E-16 ) ) ;
#240 = PRODUCT_DEFINITION_FORMATION_WITH_SPECIFIED_SOURCE ( 'ANY', '', #186, .NOT_KNOWN. ) ;
#241 = SECURITY_CLASSIFICATION_LEVEL ( 'unclassified' ) ;
#242 = CARTESIAN_POINT ( 'NONE',  ( 4.707437021622468893E-14, 2.293999999999998263, 13.48263549127898209 ) ) ;
#243 = APPLICATION_CONTEXT ( 'configuration controlled 3d designs of mechanical parts and assemblies' ) ;
ENDSEC;
END-ISO-10303-21;
