ISO-10303-21;
HEADER;
FILE_DESCRIPTION (( 'STEP AP203' ),
    '1' );
FILE_NAME ('321361.step',
    '2021-11-26T10:03:01',
    ( '' ),
    ( '' ),
    'SwSTEP 2.0',
    'SolidWorks 2019',
    '' );
FILE_SCHEMA (( 'CONFIG_CONTROL_DESIGN' ));
ENDSEC;

DATA;
#1 = FACE_OUTER_BOUND ( 'NONE', #178, .T. ) ;
#2 = CLOSED_SHELL ( 'NONE', ( #116, #38, #190, #200 ) ) ;
#3 = DIRECTION ( 'NONE',  ( 0.0000000000000000000, 1.000000000000000000, 0.0000000000000000000 ) ) ;
#4 = CARTESIAN_POINT ( 'NONE',  ( 0.0000000000000000000, 0.0000000000000000000, 0.0000000000000000000 ) ) ;
#5 = LOCAL_TIME ( 11, 3, 1.000000000000000000, #52 ) ;
#6 = DIRECTION ( 'NONE',  ( -3.153425691349006731E-31, -1.000000000000000000, -9.031770143711729009E-17 ) ) ;
#7 = APPROVAL_DATE_TIME ( #12, #182 ) ;
#8 = CC_DESIGN_DATE_AND_TIME_ASSIGNMENT ( #147, #242, ( #32 ) ) ;
#9 = EDGE_LOOP ( 'NONE', ( #160 ) ) ;
#10 = DIRECTION ( 'NONE',  ( -3.491481338843133355E-15, 9.031770143711729009E-17, -1.000000000000000000 ) ) ;
#11 = LOCAL_TIME ( 11, 3, 1.000000000000000000, #192 ) ;
#12 = DATE_AND_TIME ( #183, #46 ) ;
#13 = ORIENTED_EDGE ( 'NONE', *, *, #211, .F. ) ;
#14 = CC_DESIGN_PERSON_AND_ORGANIZATION_ASSIGNMENT ( #140, #167, ( #32 ) ) ;
#15 = DATE_AND_TIME ( #170, #5 ) ;
#16 = CARTESIAN_POINT ( 'NONE',  ( 4.710460733158745135E-14, 6.492759963008317339E-15, 13.49129574531682429 ) ) ;
#17 = DIRECTION ( 'NONE',  ( -3.491481338843133355E-15, 9.031770143711729009E-17, -1.000000000000000000 ) ) ;
#18 = AXIS2_PLACEMENT_3D ( 'NONE', #134, #214, #172 ) ;
#19 = DIRECTION ( 'NONE',  ( -3.491481338843133355E-15, -4.812554765365751025E-16, -1.000000000000000000 ) ) ;
#20 = DATE_TIME_ROLE ( 'classification_date' ) ;
#21 = CARTESIAN_POINT ( 'NONE',  ( 4.885231259955590439E-14, 1.999999999999990452, 13.99185842870425134 ) ) ;
#22 = CYLINDRICAL_SURFACE ( 'NONE', #88, 2.288999999999995261 ) ;
#23 = CALENDAR_DATE ( 2021, 26, 11 ) ;
#24 = DIRECTION ( 'NONE',  ( -3.491481338843133355E-15, 9.031770143711729009E-17, -1.000000000000000000 ) ) ;
#25 = CIRCLE ( 'NONE', #103, 1.999999999999991784 ) ;
#26 = APPLICATION_CONTEXT ( 'configuration controlled 3d designs of mechanical parts and assemblies' ) ;
#27 = VERTEX_POINT ( 'NONE', #99 ) ;
#28 = ADVANCED_FACE ( 'NONE', ( #117, #51 ), #173, .T. ) ;
#29 = DIRECTION ( 'NONE',  ( -3.491481338843133355E-15, 9.031770143711729009E-17, -1.000000000000000000 ) ) ;
#30 = EDGE_CURVE ( 'NONE', #213, #213, #64, .T. ) ;
#31 = DIRECTION ( 'NONE',  ( 3.491481338843133355E-15, -9.031770143711729009E-17, 1.000000000000000000 ) ) ;
#32 = PRODUCT_DEFINITION ( 'UNKNOWN', '', #154, #240 ) ;
#33 = FACE_OUTER_BOUND ( 'NONE', #162, .T. ) ;
#34 = EDGE_LOOP ( 'NONE', ( #65 ) ) ;
#35 = APPROVAL_ROLE ( '' ) ;
#36 = ORIENTED_EDGE ( 'NONE', *, *, #67, .F. ) ;
#37 = CARTESIAN_POINT ( 'NONE',  ( 4.710460733158746398E-14, 6.492759963008318128E-15, 13.49129574531682785 ) ) ;
#38 = ADVANCED_FACE ( 'NONE', ( #40, #72 ), #22, .T. ) ;
#39 = VERTEX_POINT ( 'NONE', #115 ) ;
#40 = FACE_OUTER_BOUND ( 'NONE', #83, .T. ) ;
#41 = CARTESIAN_POINT ( 'NONE',  ( 4.710460733158745766E-14, 2.288999999999998369, 13.49129574531682607 ) ) ;
#42 = EDGE_CURVE ( 'NONE', #39, #39, #205, .T. ) ;
#43 = CLOSED_SHELL ( 'NONE', ( #180, #28, #195, #236, #156 ) ) ;
#44 = APPROVAL_STATUS ( 'not_yet_approved' ) ;
#45 = ORIENTED_EDGE ( 'NONE', *, *, #80, .F. ) ;
#46 = LOCAL_TIME ( 11, 3, 1.000000000000000000, #106 ) ;
#47 = DIRECTION ( 'NONE',  ( -1.680294515543511549E-30, 1.000000000000000000, -4.812554765365751025E-16 ) ) ;
#48 = DIRECTION ( 'NONE',  ( -3.491481338843133355E-15, 9.031770143711729009E-17, -1.000000000000000000 ) ) ;
#49 = DIRECTION ( 'NONE',  ( 1.000000000000000000, 0.0000000000000000000, 0.0000000000000000000 ) ) ;
#50 = LOCAL_TIME ( 11, 3, 1.000000000000000000, #73 ) ;
#51 = FACE_OUTER_BOUND ( 'NONE', #123, .T. ) ;
#52 = COORDINATED_UNIVERSAL_TIME_OFFSET ( 1, 0, .AHEAD. ) ;
#53 = DIRECTION ( 'NONE',  ( -3.491481338843133355E-15, 9.031770143711729009E-17, -1.000000000000000000 ) ) ;
#54 = EDGE_LOOP ( 'NONE', ( #36 ) ) ;
#55 = VERTEX_POINT ( 'NONE', #41 ) ;
#56 = AXIS2_PLACEMENT_3D ( 'NONE', #16, #238, #77 ) ;
#57 = CARTESIAN_POINT ( 'NONE',  ( 3.458146749732337372E-30, 4.766607352188447393E-31, 9.904525942212709064E-16 ) ) ;
#58 = CC_DESIGN_DATE_AND_TIME_ASSIGNMENT ( #75, #20, ( #82 ) ) ;
#59 = DATE_AND_TIME ( #120, #11 ) ;
#60 = AXIS2_PLACEMENT_3D ( 'NONE', #92, #10, #198 ) ;
#61 = CC_DESIGN_PERSON_AND_ORGANIZATION_ASSIGNMENT ( #216, #138, ( #82 ) ) ;
#62 = EDGE_LOOP ( 'NONE', ( #149 ) ) ;
#63 = DIRECTION ( 'NONE',  ( -3.491481338843133355E-15, -4.812554765365751025E-16, -1.000000000000000000 ) ) ;
#64 = CIRCLE ( 'NONE', #179, 2.288999999999992152 ) ;
#65 = ORIENTED_EDGE ( 'NONE', *, *, #211, .T. ) ;
#66 = PERSON_AND_ORGANIZATION_ROLE ( 'design_supplier' ) ;
#67 = EDGE_CURVE ( 'NONE', #215, #215, #25, .T. ) ;
#68 = ORIENTED_EDGE ( 'NONE', *, *, #30, .T. ) ;
#69 =( NAMED_UNIT ( * ) PLANE_ANGLE_UNIT ( ) SI_UNIT ( $, .RADIAN. ) );
#70 = PLANE ( 'NONE',  #196 ) ;
#71 = CIRCLE ( 'NONE', #155, 2.058059892324149320 ) ;
#72 = FACE_OUTER_BOUND ( 'NONE', #243, .T. ) ;
#73 = COORDINATED_UNIVERSAL_TIME_OFFSET ( 1, 0, .AHEAD. ) ;
#74 = CARTESIAN_POINT ( 'NONE',  ( 4.710460733158745135E-14, 2.288999999999998369, 13.49129574531682429 ) ) ;
#75 = DATE_AND_TIME ( #23, #50 ) ;
#76 = VERTEX_POINT ( 'NONE', #135 ) ;
#77 = DIRECTION ( 'NONE',  ( 1.680294515543511549E-30, -1.000000000000000000, 4.812554765365752011E-16 ) ) ;
#78 = LOCAL_TIME ( 11, 3, 1.000000000000000000, #175 ) ;
#79 = APPROVAL ( #44, 'UNSPECIFIED' ) ;
#80 = EDGE_CURVE ( 'NONE', #187, #187, #176, .T. ) ;
#81 = FACE_BOUND ( 'NONE', #9, .T. ) ;
#82 = SECURITY_CLASSIFICATION ( '', '', #204 ) ;
#83 = EDGE_LOOP ( 'NONE', ( #68 ) ) ;
#84 = ADVANCED_BREP_SHAPE_REPRESENTATION ( '321361', ( #141, #227, #225 ), #174 ) ;
#85 = ORIENTED_EDGE ( 'NONE', *, *, #217, .T. ) ;
#86 = DIRECTION ( 'NONE',  ( 1.680294515543511899E-30, -1.000000000000000000, 4.812554765365751025E-16 ) ) ;
#87 = ORIENTED_EDGE ( 'NONE', *, *, #30, .F. ) ;
#88 = AXIS2_PLACEMENT_3D ( 'NONE', #221, #118, #169 ) ;
#89 = CC_DESIGN_SECURITY_CLASSIFICATION ( #82, ( #154 ) ) ;
#90 =( NAMED_UNIT ( * ) SI_UNIT ( $, .STERADIAN. ) SOLID_ANGLE_UNIT ( ) );
#91 = FACE_OUTER_BOUND ( 'NONE', #34, .T. ) ;
#92 = CARTESIAN_POINT ( 'NONE',  ( 4.710460733158745766E-14, -1.218502821125375818E-15, 13.49129574531682607 ) ) ;
#93 = AXIS2_PLACEMENT_3D ( 'NONE', #112, #24, #131 ) ;
#94 = UNCERTAINTY_MEASURE_WITH_UNIT (LENGTH_MEASURE( 1.000000000000000082E-05 ), #177, 'distance_accuracy_value', 'NONE');
#95 = CARTESIAN_POINT ( 'NONE',  ( 2.779219145719134403E-13, -7.189289034394536528E-15, 79.60000000000000853 ) ) ;
#96 = AXIS2_PLACEMENT_3D ( 'NONE', #95, #17, #3 ) ;
#97 = APPROVAL_PERSON_ORGANIZATION ( #152, #79, #122 ) ;
#98 = APPROVAL ( #166, 'UNSPECIFIED' ) ;
#99 = CARTESIAN_POINT ( 'NONE',  ( -6.842277657836020854E-46, 2.058059892324149320, 0.0000000000000000000 ) ) ;
#100 = CARTESIAN_POINT ( 'NONE',  ( 4.710460733158745766E-14, 2.288999999999998369, 13.49129574531682607 ) ) ;
#101 = AXIS2_PLACEMENT_3D ( 'NONE', #186, #19, #136 ) ;
#102 = PERSON_AND_ORGANIZATION_ROLE ( 'creator' ) ;
#103 = AXIS2_PLACEMENT_3D ( 'NONE', #212, #113, #228 ) ;
#104 = CC_DESIGN_APPROVAL ( #98, ( #82 ) ) ;
#105 = CARTESIAN_POINT ( 'NONE',  ( -1.729073374866168686E-30, 2.058059892324149320, -4.952262971106354532E-16 ) ) ;
#106 = COORDINATED_UNIVERSAL_TIME_OFFSET ( 1, 0, .AHEAD. ) ;
#107 = EDGE_LOOP ( 'NONE', ( #203 ) ) ;
#108 = APPLICATION_PROTOCOL_DEFINITION ( 'international standard', 'config_control_design', 1994, #150 ) ;
#109 = FACE_OUTER_BOUND ( 'NONE', #124, .T. ) ;
#110 = CC_DESIGN_PERSON_AND_ORGANIZATION_ASSIGNMENT ( #232, #66, ( #154 ) ) ;
#111 = APPROVAL_STATUS ( 'not_yet_approved' ) ;
#112 = CARTESIAN_POINT ( 'NONE',  ( 2.779219145719134403E-13, -7.189289034394536528E-15, 79.60000000000000853 ) ) ;
#113 = DIRECTION ( 'NONE',  ( -3.491481338843133355E-15, 9.031770143711729009E-17, -1.000000000000000000 ) ) ;
#114 = CIRCLE ( 'NONE', #60, 2.288999999999999702 ) ;
#115 = CARTESIAN_POINT ( 'NONE',  ( 2.779219145719134403E-13, 1.999999999999988010, 79.60000000000000853 ) ) ;
#116 = ADVANCED_FACE ( 'NONE', ( #109 ), #185, .T. ) ;
#117 = FACE_BOUND ( 'NONE', #62, .T. ) ;
#118 = DIRECTION ( 'NONE',  ( -3.491481338843133355E-15, -4.812554765365751025E-16, -1.000000000000000000 ) ) ;
#119 = CARTESIAN_POINT ( 'NONE',  ( 4.710460733158745766E-14, -1.218502821125375818E-15, 13.49129574531682607 ) ) ;
#120 = CALENDAR_DATE ( 2021, 26, 11 ) ;
#121 = AXIS2_PLACEMENT_3D ( 'NONE', #105, #235, #142 ) ;
#122 = APPROVAL_ROLE ( '' ) ;
#123 = EDGE_LOOP ( 'NONE', ( #220 ) ) ;
#124 = EDGE_LOOP ( 'NONE', ( #87 ) ) ;
#125 = FACE_OUTER_BOUND ( 'NONE', #231, .T. ) ;
#126 = MECHANICAL_CONTEXT ( 'NONE', #150, 'mechanical' ) ;
#127 = ORIENTED_EDGE ( 'NONE', *, *, #67, .T. ) ;
#128 = EDGE_LOOP ( 'NONE', ( #127 ) ) ;
#129 = CYLINDRICAL_SURFACE ( 'NONE', #188, 1.999999999999993561 ) ;
#130 = APPLICATION_PROTOCOL_DEFINITION ( 'international standard', 'config_control_design', 1994, #26 ) ;
#131 = DIRECTION ( 'NONE',  ( 0.0000000000000000000, 1.000000000000000000, 0.0000000000000000000 ) ) ;
#132 = PERSON_AND_ORGANIZATION ( #194, #206 ) ;
#133 = CONICAL_SURFACE ( 'NONE', #223, 2.058059892324149320, 0.5235987755982979275 ) ;
#134 = CARTESIAN_POINT ( 'NONE',  ( 2.793185071074506684E-13, -7.225416114969383207E-15, 80.00000000000000000 ) ) ;
#135 = CARTESIAN_POINT ( 'NONE',  ( 2.793185071074506684E-13, 1.599999999999987876, 80.00000000000000000 ) ) ;
#136 = DIRECTION ( 'NONE',  ( -1.682769719866524113E-30, 1.000000000000000000, -4.736575677088269960E-16 ) ) ;
#137 = DIRECTION ( 'NONE',  ( 3.491481338843133355E-15, 4.812554765365751025E-16, 1.000000000000000000 ) ) ;
#138 = PERSON_AND_ORGANIZATION_ROLE ( 'classification_officer' ) ;
#139 = ORIENTED_EDGE ( 'NONE', *, *, #163, .F. ) ;
#140 = PERSON_AND_ORGANIZATION ( #194, #206 ) ;
#141 = MANIFOLD_SOLID_BREP ( 'Corps-Déplacer/Copier1[1]', #43 ) ;
#142 = DIRECTION ( 'NONE',  ( -1.680294515543511549E-30, 1.000000000000000000, -4.812554765365752011E-16 ) ) ;
#143 = FACE_OUTER_BOUND ( 'NONE', #54, .T. ) ;
#144 = APPROVAL_ROLE ( '' ) ;
#145 = CC_DESIGN_APPROVAL ( #79, ( #154 ) ) ;
#146 = SHAPE_DEFINITION_REPRESENTATION ( #158, #84 ) ;
#147 = DATE_AND_TIME ( #207, #78 ) ;
#148 = PERSON_AND_ORGANIZATION ( #194, #206 ) ;
#149 = ORIENTED_EDGE ( 'NONE', *, *, #163, .T. ) ;
#150 = APPLICATION_CONTEXT ( 'configuration controlled 3d designs of mechanical parts and assemblies' ) ;
#151 = PLANE ( 'NONE',  #233 ) ;
#152 = PERSON_AND_ORGANIZATION ( #194, #206 ) ;
#153 = CC_DESIGN_PERSON_AND_ORGANIZATION_ASSIGNMENT ( #193, #102, ( #154 ) ) ;
#154 = PRODUCT_DEFINITION_FORMATION_WITH_SPECIFIED_SOURCE ( 'ANY', '', #181, .NOT_KNOWN. ) ;
#155 = AXIS2_PLACEMENT_3D ( 'NONE', #161, #63, #47 ) ;
#156 = ADVANCED_FACE ( 'NONE', ( #91 ), #70, .T. ) ;
#157 = PRODUCT_RELATED_PRODUCT_CATEGORY ( 'detail', '', ( #181 ) ) ;
#158 = PRODUCT_DEFINITION_SHAPE ( 'NONE', 'NONE',  #32 ) ;
#159 = APPROVAL_PERSON_ORGANIZATION ( #209, #182, #35 ) ;
#160 = ORIENTED_EDGE ( 'NONE', *, *, #217, .F. ) ;
#161 = CARTESIAN_POINT ( 'NONE',  ( 3.458146749732337372E-30, 4.766607352188447393E-31, 9.904525942212709064E-16 ) ) ;
#162 = EDGE_LOOP ( 'NONE', ( #85 ) ) ;
#163 = EDGE_CURVE ( 'NONE', #76, #76, #229, .T. ) ;
#164 = APPROVAL_DATE_TIME ( #15, #98 ) ;
#165 = PLANE ( 'NONE',  #121 ) ;
#166 = APPROVAL_STATUS ( 'not_yet_approved' ) ;
#167 = PERSON_AND_ORGANIZATION_ROLE ( 'creator' ) ;
#168 = DIRECTION ( 'NONE',  ( 0.0000000000000000000, 1.000000000000000000, 0.0000000000000000000 ) ) ;
#169 = DIRECTION ( 'NONE',  ( -1.680294515543511549E-30, 1.000000000000000000, -4.812554765365751025E-16 ) ) ;
#170 = CALENDAR_DATE ( 2021, 26, 11 ) ;
#171 = CARTESIAN_POINT ( 'NONE',  ( 1.396592535537252948E-15, 2.288999999999998813, 0.3999999999999999112 ) ) ;
#172 = DIRECTION ( 'NONE',  ( 0.0000000000000000000, 1.000000000000000000, 0.0000000000000000000 ) ) ;
#173 = CONICAL_SURFACE ( 'NONE', #93, 1.999999999999995337, 0.7853981633974516097 ) ;
#174 =( GEOMETRIC_REPRESENTATION_CONTEXT ( 3 ) GLOBAL_UNCERTAINTY_ASSIGNED_CONTEXT ( ( #94 ) ) GLOBAL_UNIT_ASSIGNED_CONTEXT ( ( #177, #69, #90 ) ) REPRESENTATION_CONTEXT ( 'NONE', 'WORKASPACE' ) );
#175 = COORDINATED_UNIVERSAL_TIME_OFFSET ( 1, 0, .AHEAD. ) ;
#176 = CIRCLE ( 'NONE', #101, 2.288999999999998813 ) ;
#177 =( LENGTH_UNIT ( ) NAMED_UNIT ( * ) SI_UNIT ( .MILLI., .METRE. ) );
#178 = EDGE_LOOP ( 'NONE', ( #139 ) ) ;
#179 = AXIS2_PLACEMENT_3D ( 'NONE', #37, #241, #222 ) ;
#180 = ADVANCED_FACE ( 'NONE', ( #1 ), #151, .T. ) ;
#181 = PRODUCT ( '321361', '321361', '', ( #126 ) ) ;
#182 = APPROVAL ( #111, 'UNSPECIFIED' ) ;
#183 = CALENDAR_DATE ( 2021, 26, 11 ) ;
#184 = DIRECTION ( 'NONE',  ( 0.0000000000000000000, 0.0000000000000000000, 1.000000000000000000 ) ) ;
#185 = PLANE ( 'NONE',  #56 ) ;
#186 = CARTESIAN_POINT ( 'NONE',  ( 1.396592535537256695E-15, 1.925021906146305192E-16, 0.4000000000000010214 ) ) ;
#187 = VERTEX_POINT ( 'NONE', #171 ) ;
#188 = AXIS2_PLACEMENT_3D ( 'NONE', #199, #48, #208 ) ;
#189 = APPROVAL_DATE_TIME ( #59, #79 ) ;
#190 = ADVANCED_FACE ( 'NONE', ( #230, #81 ), #133, .T. ) ;
#191 = CONICAL_SURFACE ( 'NONE', #234, 2.288999999999999702, 0.5235987755982931535 ) ;
#192 = COORDINATED_UNIVERSAL_TIME_OFFSET ( 1, 0, .AHEAD. ) ;
#193 = PERSON_AND_ORGANIZATION ( #194, #206 ) ;
#194 = PERSON ( 'UNSPECIFIED', 'UNSPECIFIED', 'UNSPECIFIED', ('UNSPECIFIED'), ('UNSPECIFIED'), ('UNSPECIFIED') ) ;
#195 = ADVANCED_FACE ( 'NONE', ( #201, #143 ), #129, .T. ) ;
#196 = AXIS2_PLACEMENT_3D ( 'NONE', #74, #53, #210 ) ;
#197 = CC_DESIGN_APPROVAL ( #182, ( #32 ) ) ;
#198 = DIRECTION ( 'NONE',  ( 0.0000000000000000000, 1.000000000000000000, 0.0000000000000000000 ) ) ;
#199 = CARTESIAN_POINT ( 'NONE',  ( 0.0000000000000000000, 0.0000000000000000000, 0.0000000000000000000 ) ) ;
#200 = ADVANCED_FACE ( 'NONE', ( #33 ), #165, .T. ) ;
#201 = FACE_OUTER_BOUND ( 'NONE', #219, .T. ) ;
#202 = FACE_BOUND ( 'NONE', #128, .T. ) ;
#203 = ORIENTED_EDGE ( 'NONE', *, *, #80, .T. ) ;
#204 = SECURITY_CLASSIFICATION_LEVEL ( 'unclassified' ) ;
#205 = CIRCLE ( 'NONE', #96, 1.999999999999995337 ) ;
#206 = ORGANIZATION ( 'UNSPECIFIED', 'UNSPECIFIED', '' ) ;
#207 = CALENDAR_DATE ( 2021, 26, 11 ) ;
#208 = DIRECTION ( 'NONE',  ( 3.153425691349006731E-31, 1.000000000000000000, 9.031770143711729009E-17 ) ) ;
#209 = PERSON_AND_ORGANIZATION ( #194, #206 ) ;
#210 = DIRECTION ( 'NONE',  ( 3.153425691349006731E-31, 1.000000000000000000, 9.031770143711729009E-17 ) ) ;
#211 = EDGE_CURVE ( 'NONE', #55, #55, #114, .T. ) ;
#212 = CARTESIAN_POINT ( 'NONE',  ( 4.885231259955590439E-14, -1.263712492114123682E-15, 13.99185842870425134 ) ) ;
#213 = VERTEX_POINT ( 'NONE', #100 ) ;
#214 = DIRECTION ( 'NONE',  ( -3.491481338843133355E-15, 9.031770143711729009E-17, -1.000000000000000000 ) ) ;
#215 = VERTEX_POINT ( 'NONE', #21 ) ;
#216 = PERSON_AND_ORGANIZATION ( #194, #206 ) ;
#217 = EDGE_CURVE ( 'NONE', #27, #27, #71, .T. ) ;
#218 = ORIENTED_EDGE ( 'NONE', *, *, #42, .T. ) ;
#219 = EDGE_LOOP ( 'NONE', ( #218 ) ) ;
#220 = ORIENTED_EDGE ( 'NONE', *, *, #42, .F. ) ;
#221 = CARTESIAN_POINT ( 'NONE',  ( 0.0000000000000000000, 0.0000000000000000000, 0.0000000000000000000 ) ) ;
#222 = DIRECTION ( 'NONE',  ( -2.692431551786446569E-30, 1.000000000000000000, -7.578521083341254419E-16 ) ) ;
#223 = AXIS2_PLACEMENT_3D ( 'NONE', #57, #137, #86 ) ;
#224 = CC_DESIGN_PERSON_AND_ORGANIZATION_ASSIGNMENT ( #132, #237, ( #181 ) ) ;
#225 = AXIS2_PLACEMENT_3D ( 'NONE', #4, #184, #49 ) ;
#226 = CARTESIAN_POINT ( 'NONE',  ( 2.793185071074506684E-13, -7.225416114969383207E-15, 80.00000000000000000 ) ) ;
#227 = MANIFOLD_SOLID_BREP ( 'Corps-Déplacer/Copier1[2]', #2 ) ;
#228 = DIRECTION ( 'NONE',  ( 0.0000000000000000000, 1.000000000000000000, 0.0000000000000000000 ) ) ;
#229 = CIRCLE ( 'NONE', #18, 1.599999999999994982 ) ;
#230 = FACE_OUTER_BOUND ( 'NONE', #107, .T. ) ;
#231 = EDGE_LOOP ( 'NONE', ( #13 ) ) ;
#232 = PERSON_AND_ORGANIZATION ( #194, #206 ) ;
#233 = AXIS2_PLACEMENT_3D ( 'NONE', #226, #31, #6 ) ;
#234 = AXIS2_PLACEMENT_3D ( 'NONE', #119, #29, #168 ) ;
#235 = DIRECTION ( 'NONE',  ( -3.491481338843133355E-15, -4.812554765365752011E-16, -1.000000000000000000 ) ) ;
#236 = ADVANCED_FACE ( 'NONE', ( #202, #125 ), #191, .T. ) ;
#237 = PERSON_AND_ORGANIZATION_ROLE ( 'design_owner' ) ;
#238 = DIRECTION ( 'NONE',  ( 3.491481338843133355E-15, 4.812554765365752011E-16, 1.000000000000000000 ) ) ;
#239 = APPROVAL_PERSON_ORGANIZATION ( #148, #98, #144 ) ;
#240 = DESIGN_CONTEXT ( 'detailed design', #26, 'design' ) ;
#241 = DIRECTION ( 'NONE',  ( -3.491481338843133355E-15, -4.812554765365751025E-16, -1.000000000000000000 ) ) ;
#242 = DATE_TIME_ROLE ( 'creation_date' ) ;
#243 = EDGE_LOOP ( 'NONE', ( #45 ) ) ;
ENDSEC;
END-ISO-10303-21;
