ISO-10303-21;
HEADER;
FILE_DESCRIPTION (( 'STEP AP203' ),
    '1' );
FILE_NAME ('321360.step',
    '2021-11-26T10:03:00',
    ( '' ),
    ( '' ),
    'SwSTEP 2.0',
    'SolidWorks 2019',
    '' );
FILE_SCHEMA (( 'CONFIG_CONTROL_DESIGN' ));
ENDSEC;

DATA;
#1 = VERTEX_POINT ( 'NONE', #2 ) ;
#2 = CARTESIAN_POINT ( 'NONE',  ( 4.885231259955590439E-14, 1.999999999999990452, 13.99185842870425134 ) ) ;
#3 = VERTEX_POINT ( 'NONE', #150 ) ;
#4 = PERSON ( 'UNSPECIFIED', 'UNSPECIFIED', 'UNSPECIFIED', ('UNSPECIFIED'), ('UNSPECIFIED'), ('UNSPECIFIED') ) ;
#5 = EDGE_LOOP ( 'NONE', ( #174 ) ) ;
#6 = ORGANIZATION ( 'UNSPECIFIED', 'UNSPECIFIED', '' ) ;
#7 = APPROVAL ( #22, 'UNSPECIFIED' ) ;
#8 = DIRECTION ( 'NONE',  ( -3.153425691349006731E-31, -1.000000000000000000, -9.031770143711729009E-17 ) ) ;
#9 = FACE_OUTER_BOUND ( 'NONE', #79, .T. ) ;
#10 = FACE_BOUND ( 'NONE', #100, .T. ) ;
#11 = PLANE ( 'NONE',  #137 ) ;
#12 = DIRECTION ( 'NONE',  ( -3.491481338843133355E-15, -4.807896272284982716E-16, -1.000000000000000000 ) ) ;
#13 = DIRECTION ( 'NONE',  ( 3.491481338843133355E-15, 4.807896272284982716E-16, 1.000000000000000000 ) ) ;
#14 = COORDINATED_UNIVERSAL_TIME_OFFSET ( 1, 0, .AHEAD. ) ;
#15 = DIRECTION ( 'NONE',  ( 0.0000000000000000000, 0.0000000000000000000, 1.000000000000000000 ) ) ;
#16 = CARTESIAN_POINT ( 'NONE',  ( 4.713484444695023902E-14, 2.283999999999998476, 13.49995599935467183 ) ) ;
#17 = CIRCLE ( 'NONE', #211, 1.999999999999991784 ) ;
#18 = CC_DESIGN_APPROVAL ( #7, ( #183 ) ) ;
#19 = PERSON_AND_ORGANIZATION_ROLE ( 'design_owner' ) ;
#20 = PERSON_AND_ORGANIZATION ( #4, #6 ) ;
#21 = APPROVAL_ROLE ( '' ) ;
#22 = APPROVAL_STATUS ( 'not_yet_approved' ) ;
#23 = CARTESIAN_POINT ( 'NONE',  ( 2.793185071074506684E-13, -7.225416114969383207E-15, 80.00000000000000000 ) ) ;
#24 = EDGE_LOOP ( 'NONE', ( #96 ) ) ;
#25 = ORIENTED_EDGE ( 'NONE', *, *, #188, .F. ) ;
#26 = AXIS2_PLACEMENT_3D ( 'NONE', #181, #220, #103 ) ;
#27 = CIRCLE ( 'NONE', #164, 2.283999999999998032 ) ;
#28 = CYLINDRICAL_SURFACE ( 'NONE', #39, 2.283999999999994923 ) ;
#29 = CARTESIAN_POINT ( 'NONE',  ( 0.0000000000000000000, 0.0000000000000000000, 0.0000000000000000000 ) ) ;
#30 = VERTEX_POINT ( 'NONE', #149 ) ;
#31 = ADVANCED_FACE ( 'NONE', ( #117 ), #193, .T. ) ;
#32 = CC_DESIGN_DATE_AND_TIME_ASSIGNMENT ( #185, #89, ( #122 ) ) ;
#33 = CIRCLE ( 'NONE', #228, 1.599999999999994982 ) ;
#34 = FACE_OUTER_BOUND ( 'NONE', #24, .T. ) ;
#35 = LOCAL_TIME ( 11, 3, 0.0000000000000000000, #130 ) ;
#36 = DIRECTION ( 'NONE',  ( -1.678668011377648268E-30, 1.000000000000000000, -4.807896272284981730E-16 ) ) ;
#37 = EDGE_CURVE ( 'NONE', #30, #30, #136, .T. ) ;
#38 = CARTESIAN_POINT ( 'NONE',  ( 1.396592535537252948E-15, 2.283999999999998032, 0.3999999999999999112 ) ) ;
#39 = AXIS2_PLACEMENT_3D ( 'NONE', #29, #144, #51 ) ;
#40 =( NAMED_UNIT ( * ) PLANE_ANGLE_UNIT ( ) SI_UNIT ( $, .RADIAN. ) );
#41 = VERTEX_POINT ( 'NONE', #16 ) ;
#42 = SHAPE_DEFINITION_REPRESENTATION ( #101, #114 ) ;
#43 = EDGE_LOOP ( 'NONE', ( #25 ) ) ;
#44 = APPROVAL_PERSON_ORGANIZATION ( #168, #118, #54 ) ;
#45 = ORIENTED_EDGE ( 'NONE', *, *, #74, .T. ) ;
#46 = PRODUCT_DEFINITION_FORMATION_WITH_SPECIFIED_SOURCE ( 'ANY', '', #157, .NOT_KNOWN. ) ;
#47 = APPROVAL_PERSON_ORGANIZATION ( #88, #99, #70 ) ;
#48 = FACE_OUTER_BOUND ( 'NONE', #237, .T. ) ;
#49 = DIRECTION ( 'NONE',  ( 3.153425691349006731E-31, 1.000000000000000000, 9.031770143711729009E-17 ) ) ;
#50 = CC_DESIGN_PERSON_AND_ORGANIZATION_ASSIGNMENT ( #57, #212, ( #183 ) ) ;
#51 = DIRECTION ( 'NONE',  ( -1.678668011377648268E-30, 1.000000000000000000, -4.807896272284982716E-16 ) ) ;
#52 = DIRECTION ( 'NONE',  ( 0.0000000000000000000, 1.000000000000000000, 0.0000000000000000000 ) ) ;
#53 = APPROVAL_STATUS ( 'not_yet_approved' ) ;
#54 = APPROVAL_ROLE ( '' ) ;
#55 = DATE_TIME_ROLE ( 'classification_date' ) ;
#56 = AXIS2_PLACEMENT_3D ( 'NONE', #68, #81, #49 ) ;
#57 = PERSON_AND_ORGANIZATION ( #4, #6 ) ;
#58 = EDGE_LOOP ( 'NONE', ( #232 ) ) ;
#59 = MANIFOLD_SOLID_BREP ( 'Corps-Déplacer/Copier1[1]', #156 ) ;
#60 = AXIS2_PLACEMENT_3D ( 'NONE', #177, #162, #52 ) ;
#61 = ORIENTED_EDGE ( 'NONE', *, *, #37, .T. ) ;
#62 = DIRECTION ( 'NONE',  ( -3.491481338843133355E-15, 9.031770143711729009E-17, -1.000000000000000000 ) ) ;
#63 = AXIS2_PLACEMENT_3D ( 'NONE', #106, #12, #240 ) ;
#64 = DIRECTION ( 'NONE',  ( 3.491481338843133355E-15, 4.807896272284982716E-16, 1.000000000000000000 ) ) ;
#65 = DIRECTION ( 'NONE',  ( 0.0000000000000000000, 1.000000000000000000, 0.0000000000000000000 ) ) ;
#66 = DIRECTION ( 'NONE',  ( -2.698325666391933695E-30, 1.000000000000000000, -7.595111541054348681E-16 ) ) ;
#67 = CLOSED_SHELL ( 'NONE', ( #139, #160, #153, #135 ) ) ;
#68 = CARTESIAN_POINT ( 'NONE',  ( 4.713484444695024533E-14, 2.283999999999998476, 13.49995599935467361 ) ) ;
#69 = CC_DESIGN_SECURITY_CLASSIFICATION ( #183, ( #46 ) ) ;
#70 = APPROVAL_ROLE ( '' ) ;
#71 = COORDINATED_UNIVERSAL_TIME_OFFSET ( 1, 0, .AHEAD. ) ;
#72 = ADVANCED_FACE ( 'NONE', ( #10, #48 ), #182, .T. ) ;
#73 = CALENDAR_DATE ( 2021, 26, 11 ) ;
#74 = EDGE_CURVE ( 'NONE', #172, #172, #83, .T. ) ;
#75 = CARTESIAN_POINT ( 'NONE',  ( 2.793185071074506684E-13, 1.599999999999987876, 80.00000000000000000 ) ) ;
#76 = EDGE_LOOP ( 'NONE', ( #120 ) ) ;
#77 = ORIENTED_EDGE ( 'NONE', *, *, #78, .T. ) ;
#78 = EDGE_CURVE ( 'NONE', #209, #209, #33, .T. ) ;
#79 = EDGE_LOOP ( 'NONE', ( #141 ) ) ;
#80 = DESIGN_CONTEXT ( 'detailed design', #167, 'design' ) ;
#81 = DIRECTION ( 'NONE',  ( -3.491481338843133355E-15, 9.031770143711729009E-17, -1.000000000000000000 ) ) ;
#82 = DIRECTION ( 'NONE',  ( -3.491481338843133355E-15, 9.031770143711729009E-17, -1.000000000000000000 ) ) ;
#83 = CIRCLE ( 'NONE', #223, 2.053059892324148095 ) ;
#84 = AXIS2_PLACEMENT_3D ( 'NONE', #204, #15, #208 ) ;
#85 = DIRECTION ( 'NONE',  ( -1.686453541494954093E-30, 1.000000000000000000, -4.746944713158955353E-16 ) ) ;
#86 = DIRECTION ( 'NONE',  ( 0.0000000000000000000, 1.000000000000000000, 0.0000000000000000000 ) ) ;
#87 = DIRECTION ( 'NONE',  ( 1.678668011377648268E-30, -1.000000000000000000, 4.807896272284982716E-16 ) ) ;
#88 = PERSON_AND_ORGANIZATION ( #4, #6 ) ;
#89 = DATE_TIME_ROLE ( 'creation_date' ) ;
#90 = EDGE_CURVE ( 'NONE', #41, #41, #169, .T. ) ;
#91 = ADVANCED_FACE ( 'NONE', ( #124, #219 ), #113, .T. ) ;
#92 = APPLICATION_PROTOCOL_DEFINITION ( 'international standard', 'config_control_design', 1994, #95 ) ;
#93 = AXIS2_PLACEMENT_3D ( 'NONE', #104, #82, #65 ) ;
#94 = LOCAL_TIME ( 11, 3, 0.0000000000000000000, #14 ) ;
#95 = APPLICATION_CONTEXT ( 'configuration controlled 3d designs of mechanical parts and assemblies' ) ;
#96 = ORIENTED_EDGE ( 'NONE', *, *, #151, .F. ) ;
#97 = EDGE_LOOP ( 'NONE', ( #121 ) ) ;
#98 = DATE_AND_TIME ( #195, #127 ) ;
#99 = APPROVAL ( #165, 'UNSPECIFIED' ) ;
#100 = EDGE_LOOP ( 'NONE', ( #77 ) ) ;
#101 = PRODUCT_DEFINITION_SHAPE ( 'NONE', 'NONE',  #122 ) ;
#102 = CARTESIAN_POINT ( 'NONE',  ( 4.713484444695024533E-14, 6.490638812530861728E-15, 13.49995599935467361 ) ) ;
#103 = DIRECTION ( 'NONE',  ( 0.0000000000000000000, 1.000000000000000000, 0.0000000000000000000 ) ) ;
#104 = CARTESIAN_POINT ( 'NONE',  ( 4.713484444695023902E-14, -1.219284995363935705E-15, 13.49995599935467183 ) ) ;
#105 = APPROVAL_PERSON_ORGANIZATION ( #20, #7, #21 ) ;
#106 = CARTESIAN_POINT ( 'NONE',  ( -1.723202983343493000E-30, 2.053059892324148095, -4.935449501541538981E-16 ) ) ;
#107 = FACE_OUTER_BOUND ( 'NONE', #138, .T. ) ;
#108 =( NAMED_UNIT ( * ) SI_UNIT ( $, .STERADIAN. ) SOLID_ANGLE_UNIT ( ) );
#109 = AXIS2_PLACEMENT_3D ( 'NONE', #178, #125, #200 ) ;
#110 = CALENDAR_DATE ( 2021, 26, 11 ) ;
#111 = PERSON_AND_ORGANIZATION ( #4, #6 ) ;
#112 = CARTESIAN_POINT ( 'NONE',  ( -6.842277657836020854E-46, 2.053059892324148095, 0.0000000000000000000 ) ) ;
#113 = CONICAL_SURFACE ( 'NONE', #60, 2.283999999999999364, 0.5235987755982933756 ) ;
#114 = ADVANCED_BREP_SHAPE_REPRESENTATION ( '321360', ( #59, #225, #84 ), #184 ) ;
#115 = ORIENTED_EDGE ( 'NONE', *, *, #151, .T. ) ;
#116 = COORDINATED_UNIVERSAL_TIME_OFFSET ( 1, 0, .AHEAD. ) ;
#117 = FACE_OUTER_BOUND ( 'NONE', #154, .T. ) ;
#118 = APPROVAL ( #53, 'UNSPECIFIED' ) ;
#119 = EDGE_CURVE ( 'NONE', #1, #1, #17, .T. ) ;
#120 = ORIENTED_EDGE ( 'NONE', *, *, #90, .F. ) ;
#121 = ORIENTED_EDGE ( 'NONE', *, *, #74, .F. ) ;
#122 = PRODUCT_DEFINITION ( 'UNKNOWN', '', #46, #80 ) ;
#123 = DIRECTION ( 'NONE',  ( 1.678668011377648618E-30, -1.000000000000000000, 4.807896272284981730E-16 ) ) ;
#124 = FACE_BOUND ( 'NONE', #58, .T. ) ;
#125 = DIRECTION ( 'NONE',  ( -3.491481338843133355E-15, 9.031770143711729009E-17, -1.000000000000000000 ) ) ;
#126 = PLANE ( 'NONE',  #56 ) ;
#127 = LOCAL_TIME ( 11, 3, 0.0000000000000000000, #116 ) ;
#128 = DIRECTION ( 'NONE',  ( -3.491481338843133355E-15, 9.031770143711729009E-17, -1.000000000000000000 ) ) ;
#129 = PERSON_AND_ORGANIZATION_ROLE ( 'creator' ) ;
#130 = COORDINATED_UNIVERSAL_TIME_OFFSET ( 1, 0, .AHEAD. ) ;
#131 = LOCAL_TIME ( 11, 3, 0.0000000000000000000, #227 ) ;
#132 = PERSON_AND_ORGANIZATION ( #4, #6 ) ;
#133 = PERSON_AND_ORGANIZATION ( #4, #6 ) ;
#134 = DATE_AND_TIME ( #110, #94 ) ;
#135 = ADVANCED_FACE ( 'NONE', ( #107 ), #161, .T. ) ;
#136 = CIRCLE ( 'NONE', #26, 1.999999999999995337 ) ;
#137 = AXIS2_PLACEMENT_3D ( 'NONE', #102, #13, #87 ) ;
#138 = EDGE_LOOP ( 'NONE', ( #45 ) ) ;
#139 = ADVANCED_FACE ( 'NONE', ( #34 ), #11, .T. ) ;
#140 = ORIENTED_EDGE ( 'NONE', *, *, #37, .F. ) ;
#141 = ORIENTED_EDGE ( 'NONE', *, *, #188, .T. ) ;
#142 = FACE_OUTER_BOUND ( 'NONE', #215, .T. ) ;
#143 = DIRECTION ( 'NONE',  ( 0.0000000000000000000, 1.000000000000000000, 0.0000000000000000000 ) ) ;
#144 = DIRECTION ( 'NONE',  ( -3.491481338843133355E-15, -4.807896272284982716E-16, -1.000000000000000000 ) ) ;
#145 = FACE_OUTER_BOUND ( 'NONE', #43, .T. ) ;
#146 = CARTESIAN_POINT ( 'NONE',  ( 2.779219145719134403E-13, -7.189289034394536528E-15, 79.60000000000000853 ) ) ;
#147 = DATE_AND_TIME ( #73, #35 ) ;
#148 = APPROVAL_DATE_TIME ( #147, #99 ) ;
#149 = CARTESIAN_POINT ( 'NONE',  ( 2.779219145719134403E-13, 1.999999999999988010, 79.60000000000000853 ) ) ;
#150 = CARTESIAN_POINT ( 'NONE',  ( 4.713484444695023902E-14, 2.283999999999998476, 13.49995599935467183 ) ) ;
#151 = EDGE_CURVE ( 'NONE', #3, #3, #243, .T. ) ;
#152 = PERSON_AND_ORGANIZATION ( #4, #6 ) ;
#153 = ADVANCED_FACE ( 'NONE', ( #9, #179 ), #224, .T. ) ;
#154 = EDGE_LOOP ( 'NONE', ( #194 ) ) ;
#155 = DATE_AND_TIME ( #231, #131 ) ;
#156 = CLOSED_SHELL ( 'NONE', ( #31, #72, #222, #91, #210 ) ) ;
#157 = PRODUCT ( '321360', '321360', '', ( #171 ) ) ;
#158 = CARTESIAN_POINT ( 'NONE',  ( 3.446405966686985999E-30, 4.745825852102468207E-31, 9.870899003083077962E-16 ) ) ;
#159 = DIRECTION ( 'NONE',  ( -3.491481338843133355E-15, -4.807896272284982716E-16, -1.000000000000000000 ) ) ;
#160 = ADVANCED_FACE ( 'NONE', ( #201, #145 ), #28, .T. ) ;
#161 = PLANE ( 'NONE',  #63 ) ;
#162 = DIRECTION ( 'NONE',  ( -3.491481338843133355E-15, 9.031770143711729009E-17, -1.000000000000000000 ) ) ;
#163 = DIRECTION ( 'NONE',  ( -3.491481338843133355E-15, -4.807896272284982716E-16, -1.000000000000000000 ) ) ;
#164 = AXIS2_PLACEMENT_3D ( 'NONE', #239, #163, #85 ) ;
#165 = APPROVAL_STATUS ( 'not_yet_approved' ) ;
#166 = VERTEX_POINT ( 'NONE', #38 ) ;
#167 = APPLICATION_CONTEXT ( 'configuration controlled 3d designs of mechanical parts and assemblies' ) ;
#168 = PERSON_AND_ORGANIZATION ( #4, #6 ) ;
#169 = CIRCLE ( 'NONE', #93, 2.283999999999999364 ) ;
#170 = AXIS2_PLACEMENT_3D ( 'NONE', #241, #64, #123 ) ;
#171 = MECHANICAL_CONTEXT ( 'NONE', #95, 'mechanical' ) ;
#172 = VERTEX_POINT ( 'NONE', #112 ) ;
#173 = APPROVAL_DATE_TIME ( #155, #7 ) ;
#174 = ORIENTED_EDGE ( 'NONE', *, *, #119, .F. ) ;
#175 = CC_DESIGN_PERSON_AND_ORGANIZATION_ASSIGNMENT ( #111, #186, ( #46 ) ) ;
#176 = DIRECTION ( 'NONE',  ( 3.491481338843133355E-15, -9.031770143711729009E-17, 1.000000000000000000 ) ) ;
#177 = CARTESIAN_POINT ( 'NONE',  ( 4.713484444695023902E-14, -1.219284995363935705E-15, 13.49995599935467183 ) ) ;
#178 = CARTESIAN_POINT ( 'NONE',  ( 0.0000000000000000000, 0.0000000000000000000, 0.0000000000000000000 ) ) ;
#179 = FACE_BOUND ( 'NONE', #97, .T. ) ;
#180 = CARTESIAN_POINT ( 'NONE',  ( 4.885231259955590439E-14, -1.263712492114123682E-15, 13.99185842870425134 ) ) ;
#181 = CARTESIAN_POINT ( 'NONE',  ( 2.779219145719134403E-13, -7.189289034394536528E-15, 79.60000000000000853 ) ) ;
#182 = CONICAL_SURFACE ( 'NONE', #192, 1.999999999999995337, 0.7853981633974516097 ) ;
#183 = SECURITY_CLASSIFICATION ( '', '', #230 ) ;
#184 =( GEOMETRIC_REPRESENTATION_CONTEXT ( 3 ) GLOBAL_UNCERTAINTY_ASSIGNED_CONTEXT ( ( #196 ) ) GLOBAL_UNIT_ASSIGNED_CONTEXT ( ( #221, #40, #108 ) ) REPRESENTATION_CONTEXT ( 'NONE', 'WORKASPACE' ) );
#185 = DATE_AND_TIME ( #203, #190 ) ;
#186 = PERSON_AND_ORGANIZATION_ROLE ( 'design_supplier' ) ;
#187 = CC_DESIGN_PERSON_AND_ORGANIZATION_ASSIGNMENT ( #132, #206, ( #46 ) ) ;
#188 = EDGE_CURVE ( 'NONE', #166, #166, #27, .T. ) ;
#189 = APPROVAL_DATE_TIME ( #134, #118 ) ;
#190 = LOCAL_TIME ( 11, 3, 0.0000000000000000000, #71 ) ;
#191 = CC_DESIGN_DATE_AND_TIME_ASSIGNMENT ( #98, #55, ( #183 ) ) ;
#192 = AXIS2_PLACEMENT_3D ( 'NONE', #146, #128, #86 ) ;
#193 = PLANE ( 'NONE',  #235 ) ;
#194 = ORIENTED_EDGE ( 'NONE', *, *, #78, .F. ) ;
#195 = CALENDAR_DATE ( 2021, 26, 11 ) ;
#196 = UNCERTAINTY_MEASURE_WITH_UNIT (LENGTH_MEASURE( 1.000000000000000082E-05 ), #221, 'distance_accuracy_value', 'NONE');
#197 = EDGE_LOOP ( 'NONE', ( #214 ) ) ;
#198 = CARTESIAN_POINT ( 'NONE',  ( 2.793185071074506684E-13, -7.225416114969383207E-15, 80.00000000000000000 ) ) ;
#199 = FACE_OUTER_BOUND ( 'NONE', #5, .T. ) ;
#200 = DIRECTION ( 'NONE',  ( 3.153425691349006731E-31, 1.000000000000000000, 9.031770143711729009E-17 ) ) ;
#201 = FACE_OUTER_BOUND ( 'NONE', #213, .T. ) ;
#202 = DIRECTION ( 'NONE',  ( 0.0000000000000000000, 1.000000000000000000, 0.0000000000000000000 ) ) ;
#203 = CALENDAR_DATE ( 2021, 26, 11 ) ;
#204 = CARTESIAN_POINT ( 'NONE',  ( 0.0000000000000000000, 0.0000000000000000000, 0.0000000000000000000 ) ) ;
#205 = AXIS2_PLACEMENT_3D ( 'NONE', #218, #159, #66 ) ;
#206 = PERSON_AND_ORGANIZATION_ROLE ( 'creator' ) ;
#207 = PRODUCT_RELATED_PRODUCT_CATEGORY ( 'detail', '', ( #157 ) ) ;
#208 = DIRECTION ( 'NONE',  ( 1.000000000000000000, 0.0000000000000000000, 0.0000000000000000000 ) ) ;
#209 = VERTEX_POINT ( 'NONE', #75 ) ;
#210 = ADVANCED_FACE ( 'NONE', ( #242 ), #126, .T. ) ;
#211 = AXIS2_PLACEMENT_3D ( 'NONE', #180, #217, #202 ) ;
#212 = PERSON_AND_ORGANIZATION_ROLE ( 'classification_officer' ) ;
#213 = EDGE_LOOP ( 'NONE', ( #115 ) ) ;
#214 = ORIENTED_EDGE ( 'NONE', *, *, #90, .T. ) ;
#215 = EDGE_LOOP ( 'NONE', ( #61 ) ) ;
#216 = CYLINDRICAL_SURFACE ( 'NONE', #109, 1.999999999999993561 ) ;
#217 = DIRECTION ( 'NONE',  ( -3.491481338843133355E-15, 9.031770143711729009E-17, -1.000000000000000000 ) ) ;
#218 = CARTESIAN_POINT ( 'NONE',  ( 4.713484444695024533E-14, 6.490638812530862517E-15, 13.49995599935467361 ) ) ;
#219 = FACE_OUTER_BOUND ( 'NONE', #76, .T. ) ;
#220 = DIRECTION ( 'NONE',  ( -3.491481338843133355E-15, 9.031770143711729009E-17, -1.000000000000000000 ) ) ;
#221 =( LENGTH_UNIT ( ) NAMED_UNIT ( * ) SI_UNIT ( .MILLI., .METRE. ) );
#222 = ADVANCED_FACE ( 'NONE', ( #142, #199 ), #216, .T. ) ;
#223 = AXIS2_PLACEMENT_3D ( 'NONE', #158, #238, #36 ) ;
#224 = CONICAL_SURFACE ( 'NONE', #170, 2.053059892324148095, 0.5235987755982979275 ) ;
#225 = MANIFOLD_SOLID_BREP ( 'Corps-Déplacer/Copier1[2]', #67 ) ;
#226 = APPLICATION_PROTOCOL_DEFINITION ( 'international standard', 'config_control_design', 1994, #167 ) ;
#227 = COORDINATED_UNIVERSAL_TIME_OFFSET ( 1, 0, .AHEAD. ) ;
#228 = AXIS2_PLACEMENT_3D ( 'NONE', #198, #62, #143 ) ;
#229 = CC_DESIGN_APPROVAL ( #99, ( #46 ) ) ;
#230 = SECURITY_CLASSIFICATION_LEVEL ( 'unclassified' ) ;
#231 = CALENDAR_DATE ( 2021, 26, 11 ) ;
#232 = ORIENTED_EDGE ( 'NONE', *, *, #119, .T. ) ;
#233 = CC_DESIGN_PERSON_AND_ORGANIZATION_ASSIGNMENT ( #152, #129, ( #122 ) ) ;
#234 = CC_DESIGN_PERSON_AND_ORGANIZATION_ASSIGNMENT ( #133, #19, ( #157 ) ) ;
#235 = AXIS2_PLACEMENT_3D ( 'NONE', #23, #176, #8 ) ;
#236 = CC_DESIGN_APPROVAL ( #118, ( #122 ) ) ;
#237 = EDGE_LOOP ( 'NONE', ( #140 ) ) ;
#238 = DIRECTION ( 'NONE',  ( -3.491481338843133355E-15, -4.807896272284982716E-16, -1.000000000000000000 ) ) ;
#239 = CARTESIAN_POINT ( 'NONE',  ( 1.396592535537256695E-15, 1.923158508913998017E-16, 0.4000000000000010214 ) ) ;
#240 = DIRECTION ( 'NONE',  ( -1.678668011377648268E-30, 1.000000000000000000, -4.807896272284982716E-16 ) ) ;
#241 = CARTESIAN_POINT ( 'NONE',  ( 3.446405966686985999E-30, 4.745825852102468207E-31, 9.870899003083077962E-16 ) ) ;
#242 = FACE_OUTER_BOUND ( 'NONE', #197, .T. ) ;
#243 = CIRCLE ( 'NONE', #205, 2.283999999999991815 ) ;
ENDSEC;
END-ISO-10303-21;
