ISO-10303-21;
HEADER;
FILE_DESCRIPTION (( 'STEP AP203' ),
    '1' );
FILE_NAME ('321359.step',
    '2021-11-26T10:03:00',
    ( '' ),
    ( '' ),
    'SwSTEP 2.0',
    'SolidWorks 2019',
    '' );
FILE_SCHEMA (( 'CONFIG_CONTROL_DESIGN' ));
ENDSEC;

DATA;
#1 = FACE_OUTER_BOUND ( 'NONE', #117, .T. ) ;
#2 = CARTESIAN_POINT ( 'NONE',  ( 4.885231259955590439E-14, -1.263712492114123682E-15, 13.99185842870425134 ) ) ;
#3 = UNCERTAINTY_MEASURE_WITH_UNIT (LENGTH_MEASURE( 1.000000000000000082E-05 ), #194, 'distance_accuracy_value', 'NONE');
#4 = DIRECTION ( 'NONE',  ( -3.491481338843133355E-15, -4.803243752241396252E-16, -1.000000000000000000 ) ) ;
#5 = CARTESIAN_POINT ( 'NONE',  ( 4.716508156231302037E-14, 2.278999999999998138, 13.50861625339251582 ) ) ;
#6 = PLANE ( 'NONE',  #229 ) ;
#7 = PERSON_AND_ORGANIZATION ( #212, #166 ) ;
#8 = AXIS2_PLACEMENT_3D ( 'NONE', #86, #48, #100 ) ;
#9 = DATE_AND_TIME ( #181, #185 ) ;
#10 = PERSON_AND_ORGANIZATION ( #212, #166 ) ;
#11 = COORDINATED_UNIVERSAL_TIME_OFFSET ( 1, 0, .AHEAD. ) ;
#12 = APPROVAL_PERSON_ORGANIZATION ( #7, #69, #149 ) ;
#13 = PERSON_AND_ORGANIZATION ( #212, #166 ) ;
#14 = EDGE_LOOP ( 'NONE', ( #186 ) ) ;
#15 = ADVANCED_FACE ( 'NONE', ( #154 ), #157, .T. ) ;
#16 = AXIS2_PLACEMENT_3D ( 'NONE', #5, #163, #175 ) ;
#17 = ORIENTED_EDGE ( 'NONE', *, *, #51, .F. ) ;
#18 = APPROVAL_DATE_TIME ( #132, #223 ) ;
#19 = EDGE_LOOP ( 'NONE', ( #241 ) ) ;
#20 = EDGE_CURVE ( 'NONE', #120, #120, #96, .T. ) ;
#21 = DIRECTION ( 'NONE',  ( -3.491481338843133355E-15, -4.803243752241396252E-16, -1.000000000000000000 ) ) ;
#22 = CC_DESIGN_SECURITY_CLASSIFICATION ( #215, ( #111 ) ) ;
#23 = CIRCLE ( 'NONE', #81, 2.048059892324147757 ) ;
#24 = CARTESIAN_POINT ( 'NONE',  ( 2.793185071074506684E-13, 1.599999999999987876, 80.00000000000000000 ) ) ;
#25 = FACE_BOUND ( 'NONE', #93, .T. ) ;
#26 = DIRECTION ( 'NONE',  ( -3.153425691349006731E-31, -1.000000000000000000, -9.031770143711729009E-17 ) ) ;
#27 = DIRECTION ( 'NONE',  ( -3.491481338843133355E-15, 9.031770143711729009E-17, -1.000000000000000000 ) ) ;
#28 = CLOSED_SHELL ( 'NONE', ( #82, #155, #64, #15 ) ) ;
#29 = AXIS2_PLACEMENT_3D ( 'NONE', #44, #180, #71 ) ;
#30 = DIRECTION ( 'NONE',  ( -3.491481338843133355E-15, -4.803243752241396252E-16, -1.000000000000000000 ) ) ;
#31 = ADVANCED_FACE ( 'NONE', ( #78, #171 ), #236, .T. ) ;
#32 = APPLICATION_PROTOCOL_DEFINITION ( 'international standard', 'config_control_design', 1994, #36 ) ;
#33 = MECHANICAL_CONTEXT ( 'NONE', #36, 'mechanical' ) ;
#34 = CARTESIAN_POINT ( 'NONE',  ( 4.885231259955590439E-14, 1.999999999999990452, 13.99185842870425134 ) ) ;
#35 = LOCAL_TIME ( 11, 3, 0.0000000000000000000, #40 ) ;
#36 = APPLICATION_CONTEXT ( 'configuration controlled 3d designs of mechanical parts and assemblies' ) ;
#37 = EDGE_LOOP ( 'NONE', ( #222 ) ) ;
#38 = CONICAL_SURFACE ( 'NONE', #200, 2.278999999999999471, 0.5235987755982935976 ) ;
#39 = ADVANCED_FACE ( 'NONE', ( #145 ), #119, .T. ) ;
#40 = COORDINATED_UNIVERSAL_TIME_OFFSET ( 1, 0, .AHEAD. ) ;
#41 = EDGE_LOOP ( 'NONE', ( #135 ) ) ;
#42 = CARTESIAN_POINT ( 'NONE',  ( 2.793185071074506684E-13, -7.225416114969383207E-15, 80.00000000000000000 ) ) ;
#43 = APPROVAL_PERSON_ORGANIZATION ( #169, #148, #168 ) ;
#44 = CARTESIAN_POINT ( 'NONE',  ( 2.779219145719134403E-13, -7.189289034394536528E-15, 79.60000000000000853 ) ) ;
#45 = DIRECTION ( 'NONE',  ( 0.0000000000000000000, 1.000000000000000000, 0.0000000000000000000 ) ) ;
#46 = CC_DESIGN_PERSON_AND_ORGANIZATION_ASSIGNMENT ( #196, #150, ( #111 ) ) ;
#47 = DIRECTION ( 'NONE',  ( 0.0000000000000000000, 1.000000000000000000, 0.0000000000000000000 ) ) ;
#48 = DIRECTION ( 'NONE',  ( 3.491481338843133355E-15, 4.803243752241396252E-16, 1.000000000000000000 ) ) ;
#49 = AXIS2_PLACEMENT_3D ( 'NONE', #187, #21, #203 ) ;
#50 = LOCAL_TIME ( 11, 3, 0.0000000000000000000, #211 ) ;
#51 = EDGE_CURVE ( 'NONE', #97, #97, #23, .T. ) ;
#52 = DIRECTION ( 'NONE',  ( 3.491481338843133355E-15, 4.803243752241396252E-16, 1.000000000000000000 ) ) ;
#53 = COORDINATED_UNIVERSAL_TIME_OFFSET ( 1, 0, .AHEAD. ) ;
#54 = CARTESIAN_POINT ( 'NONE',  ( 2.779219145719134403E-13, 1.999999999999988010, 79.60000000000000853 ) ) ;
#55 = PERSON_AND_ORGANIZATION ( #212, #166 ) ;
#56 = CC_DESIGN_APPROVAL ( #69, ( #161 ) ) ;
#57 = CC_DESIGN_DATE_AND_TIME_ASSIGNMENT ( #109, #239, ( #215 ) ) ;
#58 = APPROVAL_ROLE ( '' ) ;
#59 = CARTESIAN_POINT ( 'NONE',  ( 0.0000000000000000000, 0.0000000000000000000, 0.0000000000000000000 ) ) ;
#60 = EDGE_LOOP ( 'NONE', ( #156 ) ) ;
#61 = AXIS2_PLACEMENT_3D ( 'NONE', #59, #147, #140 ) ;
#62 = ORIENTED_EDGE ( 'NONE', *, *, #107, .F. ) ;
#63 = DIRECTION ( 'NONE',  ( -3.491481338843133355E-15, -4.803243752241396252E-16, -1.000000000000000000 ) ) ;
#64 = ADVANCED_FACE ( 'NONE', ( #193, #87 ), #205, .T. ) ;
#65 = VERTEX_POINT ( 'NONE', #142 ) ;
#66 = DESIGN_CONTEXT ( 'detailed design', #131, 'design' ) ;
#67 = DIRECTION ( 'NONE',  ( 0.0000000000000000000, 1.000000000000000000, 0.0000000000000000000 ) ) ;
#68 = DIRECTION ( 'NONE',  ( 0.0000000000000000000, 1.000000000000000000, 0.0000000000000000000 ) ) ;
#69 = APPROVAL ( #167, 'UNSPECIFIED' ) ;
#70 = ADVANCED_BREP_SHAPE_REPRESENTATION ( '321359', ( #74, #158, #174 ), #209 ) ;
#71 = DIRECTION ( 'NONE',  ( 0.0000000000000000000, 1.000000000000000000, 0.0000000000000000000 ) ) ;
#72 = AXIS2_PLACEMENT_3D ( 'NONE', #228, #27, #45 ) ;
#73 = CARTESIAN_POINT ( 'NONE',  ( 0.0000000000000000000, 0.0000000000000000000, 0.0000000000000000000 ) ) ;
#74 = MANIFOLD_SOLID_BREP ( 'Corps-Déplacer/Copier1[1]', #122 ) ;
#75 = DATE_AND_TIME ( #232, #242 ) ;
#76 = SECURITY_CLASSIFICATION_LEVEL ( 'unclassified' ) ;
#77 = AXIS2_PLACEMENT_3D ( 'NONE', #42, #95, #219 ) ;
#78 = FACE_OUTER_BOUND ( 'NONE', #240, .T. ) ;
#79 = CIRCLE ( 'NONE', #170, 2.278999999999991477 ) ;
#80 = ORIENTED_EDGE ( 'NONE', *, *, #201, .T. ) ;
#81 = AXIS2_PLACEMENT_3D ( 'NONE', #210, #63, #208 ) ;
#82 = ADVANCED_FACE ( 'NONE', ( #225 ), #6, .T. ) ;
#83 = CARTESIAN_POINT ( 'NONE',  ( 0.0000000000000000000, 2.048059892324147757, 0.0000000000000000000 ) ) ;
#84 = LOCAL_TIME ( 11, 3, 0.0000000000000000000, #53 ) ;
#85 = CARTESIAN_POINT ( 'NONE',  ( 1.396592535537256695E-15, 1.921297500896563332E-16, 0.4000000000000010214 ) ) ;
#86 = CARTESIAN_POINT ( 'NONE',  ( 3.434685719860559899E-30, 4.725109809780423376E-31, 9.837330882022149369E-16 ) ) ;
#87 = FACE_BOUND ( 'NONE', #202, .T. ) ;
#88 = VERTEX_POINT ( 'NONE', #90 ) ;
#89 = APPROVAL_STATUS ( 'not_yet_approved' ) ;
#90 = CARTESIAN_POINT ( 'NONE',  ( 1.396592535537252948E-15, 2.278999999999997694, 0.3999999999999999112 ) ) ;
#91 = AXIS2_PLACEMENT_3D ( 'NONE', #2, #227, #68 ) ;
#92 = COORDINATED_UNIVERSAL_TIME_OFFSET ( 1, 0, .AHEAD. ) ;
#93 = EDGE_LOOP ( 'NONE', ( #188 ) ) ;
#94 = SHAPE_DEFINITION_REPRESENTATION ( #114, #70 ) ;
#95 = DIRECTION ( 'NONE',  ( -3.491481338843133355E-15, 9.031770143711729009E-17, -1.000000000000000000 ) ) ;
#96 = CIRCLE ( 'NONE', #77, 1.599999999999994982 ) ;
#97 = VERTEX_POINT ( 'NONE', #83 ) ;
#98 = CC_DESIGN_PERSON_AND_ORGANIZATION_ASSIGNMENT ( #13, #105, ( #161 ) ) ;
#99 = CARTESIAN_POINT ( 'NONE',  ( 2.793185071074506684E-13, -7.225416114969383207E-15, 80.00000000000000000 ) ) ;
#100 = DIRECTION ( 'NONE',  ( 1.677043592686570626E-30, -1.000000000000000000, 4.803243752241396252E-16 ) ) ;
#101 = AXIS2_PLACEMENT_3D ( 'NONE', #85, #206, #178 ) ;
#102 = FACE_OUTER_BOUND ( 'NONE', #19, .T. ) ;
#103 = DIRECTION ( 'NONE',  ( -1.677043592686570626E-30, 1.000000000000000000, -4.803243752241396252E-16 ) ) ;
#104 = VERTEX_POINT ( 'NONE', #54 ) ;
#105 = PERSON_AND_ORGANIZATION_ROLE ( 'creator' ) ;
#106 = CIRCLE ( 'NONE', #91, 1.999999999999991784 ) ;
#107 = EDGE_CURVE ( 'NONE', #65, #65, #79, .T. ) ;
#108 = APPROVAL_DATE_TIME ( #75, #148 ) ;
#109 = DATE_AND_TIME ( #128, #84 ) ;
#110 = CC_DESIGN_PERSON_AND_ORGANIZATION_ASSIGNMENT ( #151, #216, ( #215 ) ) ;
#111 = PRODUCT_DEFINITION_FORMATION_WITH_SPECIFIED_SOURCE ( 'ANY', '', #173, .NOT_KNOWN. ) ;
#112 = EDGE_LOOP ( 'NONE', ( #137 ) ) ;
#113 = ORIENTED_EDGE ( 'NONE', *, *, #144, .F. ) ;
#114 = PRODUCT_DEFINITION_SHAPE ( 'NONE', 'NONE',  #161 ) ;
#115 = EDGE_LOOP ( 'NONE', ( #199 ) ) ;
#116 = CC_DESIGN_PERSON_AND_ORGANIZATION_ASSIGNMENT ( #10, #233, ( #111 ) ) ;
#117 = EDGE_LOOP ( 'NONE', ( #221 ) ) ;
#118 = CONICAL_SURFACE ( 'NONE', #29, 1.999999999999995337, 0.7853981633974516097 ) ;
#119 = PLANE ( 'NONE',  #192 ) ;
#120 = VERTEX_POINT ( 'NONE', #24 ) ;
#121 = CARTESIAN_POINT ( 'NONE',  ( 0.0000000000000000000, 0.0000000000000000000, 0.0000000000000000000 ) ) ;
#122 = CLOSED_SHELL ( 'NONE', ( #39, #238, #31, #179, #217 ) ) ;
#123 = AXIS2_PLACEMENT_3D ( 'NONE', #224, #162, #47 ) ;
#124 = FACE_OUTER_BOUND ( 'NONE', #115, .T. ) ;
#125 = DIRECTION ( 'NONE',  ( 1.677043592686570626E-30, -1.000000000000000000, 4.803243752241396252E-16 ) ) ;
#126 = DATE_AND_TIME ( #182, #50 ) ;
#127 = CIRCLE ( 'NONE', #101, 2.278999999999997694 ) ;
#128 = CALENDAR_DATE ( 2021, 26, 11 ) ;
#129 =( NAMED_UNIT ( * ) PLANE_ANGLE_UNIT ( ) SI_UNIT ( $, .RADIAN. ) );
#130 = AXIS2_PLACEMENT_3D ( 'NONE', #121, #4, #103 ) ;
#131 = APPLICATION_CONTEXT ( 'configuration controlled 3d designs of mechanical parts and assemblies' ) ;
#132 = DATE_AND_TIME ( #220, #35 ) ;
#133 = ORIENTED_EDGE ( 'NONE', *, *, #231, .T. ) ;
#134 = PERSON_AND_ORGANIZATION ( #212, #166 ) ;
#135 = ORIENTED_EDGE ( 'NONE', *, *, #231, .F. ) ;
#136 = CIRCLE ( 'NONE', #72, 1.999999999999995337 ) ;
#137 = ORIENTED_EDGE ( 'NONE', *, *, #165, .T. ) ;
#138 = PRODUCT_RELATED_PRODUCT_CATEGORY ( 'detail', '', ( #173 ) ) ;
#139 = EDGE_LOOP ( 'NONE', ( #133 ) ) ;
#140 = DIRECTION ( 'NONE',  ( 3.153425691349006731E-31, 1.000000000000000000, 9.031770143711729009E-17 ) ) ;
#141 = APPROVAL_PERSON_ORGANIZATION ( #134, #223, #58 ) ;
#142 = CARTESIAN_POINT ( 'NONE',  ( 4.716508156231302037E-14, 2.278999999999998138, 13.50861625339251582 ) ) ;
#143 = DIRECTION ( 'NONE',  ( 3.491481338843133355E-15, -9.031770143711729009E-17, 1.000000000000000000 ) ) ;
#144 = EDGE_CURVE ( 'NONE', #190, #190, #237, .T. ) ;
#145 = FACE_OUTER_BOUND ( 'NONE', #37, .T. ) ;
#146 = CC_DESIGN_APPROVAL ( #148, ( #111 ) ) ;
#147 = DIRECTION ( 'NONE',  ( -3.491481338843133355E-15, 9.031770143711729009E-17, -1.000000000000000000 ) ) ;
#148 = APPROVAL ( #89, 'UNSPECIFIED' ) ;
#149 = APPROVAL_ROLE ( '' ) ;
#150 = PERSON_AND_ORGANIZATION_ROLE ( 'creator' ) ;
#151 = PERSON_AND_ORGANIZATION ( #212, #166 ) ;
#152 = DATE_TIME_ROLE ( 'creation_date' ) ;
#153 =( NAMED_UNIT ( * ) SI_UNIT ( $, .STERADIAN. ) SOLID_ANGLE_UNIT ( ) );
#154 = FACE_OUTER_BOUND ( 'NONE', #60, .T. ) ;
#155 = ADVANCED_FACE ( 'NONE', ( #207, #1 ), #189, .T. ) ;
#156 = ORIENTED_EDGE ( 'NONE', *, *, #51, .T. ) ;
#157 = PLANE ( 'NONE',  #49 ) ;
#158 = MANIFOLD_SOLID_BREP ( 'Corps-Déplacer/Copier1[2]', #28 ) ;
#159 = CARTESIAN_POINT ( 'NONE',  ( 4.716508156231302037E-14, 6.488517662053417162E-15, 13.50861625339251582 ) ) ;
#160 = PLANE ( 'NONE',  #16 ) ;
#161 = PRODUCT_DEFINITION ( 'UNKNOWN', '', #111, #66 ) ;
#162 = DIRECTION ( 'NONE',  ( -3.491481338843133355E-15, 9.031770143711729009E-17, -1.000000000000000000 ) ) ;
#163 = DIRECTION ( 'NONE',  ( -3.491481338843133355E-15, 9.031770143711729009E-17, -1.000000000000000000 ) ) ;
#164 = FACE_OUTER_BOUND ( 'NONE', #198, .T. ) ;
#165 = EDGE_CURVE ( 'NONE', #88, #88, #127, .T. ) ;
#166 = ORGANIZATION ( 'UNSPECIFIED', 'UNSPECIFIED', '' ) ;
#167 = APPROVAL_STATUS ( 'not_yet_approved' ) ;
#168 = APPROVAL_ROLE ( '' ) ;
#169 = PERSON_AND_ORGANIZATION ( #212, #166 ) ;
#170 = AXIS2_PLACEMENT_3D ( 'NONE', #177, #30, #226 ) ;
#171 = FACE_OUTER_BOUND ( 'NONE', #41, .T. ) ;
#172 = EDGE_LOOP ( 'NONE', ( #62 ) ) ;
#173 = PRODUCT ( '321359', '321359', '', ( #33 ) ) ;
#174 = AXIS2_PLACEMENT_3D ( 'NONE', #73, #235, #234 ) ;
#175 = DIRECTION ( 'NONE',  ( 3.153425691349006731E-31, 1.000000000000000000, 9.031770143711729009E-17 ) ) ;
#176 = FACE_BOUND ( 'NONE', #139, .T. ) ;
#177 = CARTESIAN_POINT ( 'NONE',  ( 4.716508156231302668E-14, 6.488517662053418740E-15, 13.50861625339251759 ) ) ;
#178 = DIRECTION ( 'NONE',  ( -1.690153527325351189E-30, 1.000000000000000000, -4.757359247413363151E-16 ) ) ;
#179 = ADVANCED_FACE ( 'NONE', ( #176, #164 ), #38, .T. ) ;
#180 = DIRECTION ( 'NONE',  ( -3.491481338843133355E-15, 9.031770143711729009E-17, -1.000000000000000000 ) ) ;
#181 = CALENDAR_DATE ( 2021, 26, 11 ) ;
#182 = CALENDAR_DATE ( 2021, 26, 11 ) ;
#183 = VERTEX_POINT ( 'NONE', #34 ) ;
#184 = APPROVAL_DATE_TIME ( #126, #69 ) ;
#185 = LOCAL_TIME ( 11, 3, 0.0000000000000000000, #92 ) ;
#186 = ORIENTED_EDGE ( 'NONE', *, *, #107, .T. ) ;
#187 = CARTESIAN_POINT ( 'NONE',  ( -1.717342859930279950E-30, 2.048059892324147757, -4.918665441011074684E-16 ) ) ;
#188 = ORIENTED_EDGE ( 'NONE', *, *, #20, .T. ) ;
#189 = CYLINDRICAL_SURFACE ( 'NONE', #130, 2.278999999999994586 ) ;
#190 = VERTEX_POINT ( 'NONE', #214 ) ;
#191 = DIRECTION ( 'NONE',  ( -3.491481338843133355E-15, 9.031770143711729009E-17, -1.000000000000000000 ) ) ;
#192 = AXIS2_PLACEMENT_3D ( 'NONE', #99, #143, #26 ) ;
#193 = FACE_OUTER_BOUND ( 'NONE', #112, .T. ) ;
#194 =( LENGTH_UNIT ( ) NAMED_UNIT ( * ) SI_UNIT ( .MILLI., .METRE. ) );
#195 = PERSON_AND_ORGANIZATION_ROLE ( 'design_owner' ) ;
#196 = PERSON_AND_ORGANIZATION ( #212, #166 ) ;
#197 = CC_DESIGN_APPROVAL ( #223, ( #215 ) ) ;
#198 = EDGE_LOOP ( 'NONE', ( #113 ) ) ;
#199 = ORIENTED_EDGE ( 'NONE', *, *, #201, .F. ) ;
#200 = AXIS2_PLACEMENT_3D ( 'NONE', #204, #191, #67 ) ;
#201 = EDGE_CURVE ( 'NONE', #104, #104, #136, .T. ) ;
#202 = EDGE_LOOP ( 'NONE', ( #17 ) ) ;
#203 = DIRECTION ( 'NONE',  ( -1.677043592686570626E-30, 1.000000000000000000, -4.803243752241396252E-16 ) ) ;
#204 = CARTESIAN_POINT ( 'NONE',  ( 4.716508156231302037E-14, -1.220067169602495199E-15, 13.50861625339251582 ) ) ;
#205 = CONICAL_SURFACE ( 'NONE', #8, 2.048059892324147757, 0.5235987755982979275 ) ;
#206 = DIRECTION ( 'NONE',  ( -3.491481338843133355E-15, -4.803243752241396252E-16, -1.000000000000000000 ) ) ;
#207 = FACE_OUTER_BOUND ( 'NONE', #14, .T. ) ;
#208 = DIRECTION ( 'NONE',  ( -1.677043592686570626E-30, 1.000000000000000000, -4.803243752241396252E-16 ) ) ;
#209 =( GEOMETRIC_REPRESENTATION_CONTEXT ( 3 ) GLOBAL_UNCERTAINTY_ASSIGNED_CONTEXT ( ( #3 ) ) GLOBAL_UNIT_ASSIGNED_CONTEXT ( ( #194, #129, #153 ) ) REPRESENTATION_CONTEXT ( 'NONE', 'WORKASPACE' ) );
#210 = CARTESIAN_POINT ( 'NONE',  ( 3.434685719860559899E-30, 4.725109809780423376E-31, 9.837330882022149369E-16 ) ) ;
#211 = COORDINATED_UNIVERSAL_TIME_OFFSET ( 1, 0, .AHEAD. ) ;
#212 = PERSON ( 'UNSPECIFIED', 'UNSPECIFIED', 'UNSPECIFIED', ('UNSPECIFIED'), ('UNSPECIFIED'), ('UNSPECIFIED') ) ;
#213 = CC_DESIGN_DATE_AND_TIME_ASSIGNMENT ( #9, #152, ( #161 ) ) ;
#214 = CARTESIAN_POINT ( 'NONE',  ( 4.716508156231302037E-14, 2.278999999999998138, 13.50861625339251582 ) ) ;
#215 = SECURITY_CLASSIFICATION ( '', '', #76 ) ;
#216 = PERSON_AND_ORGANIZATION_ROLE ( 'classification_officer' ) ;
#217 = ADVANCED_FACE ( 'NONE', ( #102 ), #160, .T. ) ;
#218 = APPROVAL_STATUS ( 'not_yet_approved' ) ;
#219 = DIRECTION ( 'NONE',  ( 0.0000000000000000000, 1.000000000000000000, 0.0000000000000000000 ) ) ;
#220 = CALENDAR_DATE ( 2021, 26, 11 ) ;
#221 = ORIENTED_EDGE ( 'NONE', *, *, #165, .F. ) ;
#222 = ORIENTED_EDGE ( 'NONE', *, *, #20, .F. ) ;
#223 = APPROVAL ( #218, 'UNSPECIFIED' ) ;
#224 = CARTESIAN_POINT ( 'NONE',  ( 4.716508156231302037E-14, -1.220067169602495199E-15, 13.50861625339251582 ) ) ;
#225 = FACE_OUTER_BOUND ( 'NONE', #172, .T. ) ;
#226 = DIRECTION ( 'NONE',  ( -2.704245643720569469E-30, 1.000000000000000000, -7.611774795861402341E-16 ) ) ;
#227 = DIRECTION ( 'NONE',  ( -3.491481338843133355E-15, 9.031770143711729009E-17, -1.000000000000000000 ) ) ;
#228 = CARTESIAN_POINT ( 'NONE',  ( 2.779219145719134403E-13, -7.189289034394536528E-15, 79.60000000000000853 ) ) ;
#229 = AXIS2_PLACEMENT_3D ( 'NONE', #159, #52, #125 ) ;
#230 = APPLICATION_PROTOCOL_DEFINITION ( 'international standard', 'config_control_design', 1994, #131 ) ;
#231 = EDGE_CURVE ( 'NONE', #183, #183, #106, .T. ) ;
#232 = CALENDAR_DATE ( 2021, 26, 11 ) ;
#233 = PERSON_AND_ORGANIZATION_ROLE ( 'design_supplier' ) ;
#234 = DIRECTION ( 'NONE',  ( 1.000000000000000000, 0.0000000000000000000, 0.0000000000000000000 ) ) ;
#235 = DIRECTION ( 'NONE',  ( 0.0000000000000000000, 0.0000000000000000000, 1.000000000000000000 ) ) ;
#236 = CYLINDRICAL_SURFACE ( 'NONE', #61, 1.999999999999993561 ) ;
#237 = CIRCLE ( 'NONE', #123, 2.278999999999999471 ) ;
#238 = ADVANCED_FACE ( 'NONE', ( #25, #124 ), #118, .T. ) ;
#239 = DATE_TIME_ROLE ( 'classification_date' ) ;
#240 = EDGE_LOOP ( 'NONE', ( #80 ) ) ;
#241 = ORIENTED_EDGE ( 'NONE', *, *, #144, .T. ) ;
#242 = LOCAL_TIME ( 11, 3, 0.0000000000000000000, #11 ) ;
#243 = CC_DESIGN_PERSON_AND_ORGANIZATION_ASSIGNMENT ( #55, #195, ( #173 ) ) ;
ENDSEC;
END-ISO-10303-21;
