ISO-10303-21;
HEADER;
FILE_DESCRIPTION (( 'STEP AP203' ),
    '1' );
FILE_NAME ('321358.step',
    '2021-11-26T10:02:59',
    ( '' ),
    ( '' ),
    'SwSTEP 2.0',
    'SolidWorks 2019',
    '' );
FILE_SCHEMA (( 'CONFIG_CONTROL_DESIGN' ));
ENDSEC;

DATA;
#1 = DIRECTION ( 'NONE',  ( 3.491481338843133355E-15, 4.798597193754551952E-16, 1.000000000000000000 ) ) ;
#2 = CONICAL_SURFACE ( 'NONE', #95, 2.273999999999999577, 0.5235987755982945968 ) ;
#3 = ADVANCED_FACE ( 'NONE', ( #64, #232 ), #130, .T. ) ;
#4 = EDGE_LOOP ( 'NONE', ( #100 ) ) ;
#5 = PERSON_AND_ORGANIZATION_ROLE ( 'creator' ) ;
#6 = ORIENTED_EDGE ( 'NONE', *, *, #238, .F. ) ;
#7 = EDGE_CURVE ( 'NONE', #136, #136, #120, .T. ) ;
#8 = AXIS2_PLACEMENT_3D ( 'NONE', #108, #1, #16 ) ;
#9 = CARTESIAN_POINT ( 'NONE',  ( 3.422985969781589412E-30, 4.704459017471813275E-31, 9.803821465979138648E-16 ) ) ;
#10 = DIRECTION ( 'NONE',  ( 1.675421255461905003E-30, -1.000000000000000000, 4.798597193754552938E-16 ) ) ;
#11 = CARTESIAN_POINT ( 'NONE',  ( 0.0000000000000000000, 0.0000000000000000000, 0.0000000000000000000 ) ) ;
#12 = EDGE_LOOP ( 'NONE', ( #109 ) ) ;
#13 = SHAPE_DEFINITION_REPRESENTATION ( #162, #175 ) ;
#14 = CIRCLE ( 'NONE', #61, 1.599999999999994982 ) ;
#15 = ADVANCED_FACE ( 'NONE', ( #92 ), #23, .T. ) ;
#16 = DIRECTION ( 'NONE',  ( 1.675421255461904653E-30, -1.000000000000000000, 4.798597193754551952E-16 ) ) ;
#17 = VERTEX_POINT ( 'NONE', #155 ) ;
#18 = APPROVAL_PERSON_ORGANIZATION ( #200, #21, #154 ) ;
#19 = DIRECTION ( 'NONE',  ( -3.491481338843133355E-15, 9.031770143711729009E-17, -1.000000000000000000 ) ) ;
#20 = DIRECTION ( 'NONE',  ( 0.0000000000000000000, 1.000000000000000000, 0.0000000000000000000 ) ) ;
#21 = APPROVAL ( #124, 'UNSPECIFIED' ) ;
#22 = CARTESIAN_POINT ( 'NONE',  ( 3.422985969781589412E-30, 4.704459017471813275E-31, 9.803821465979138648E-16 ) ) ;
#23 = PLANE ( 'NONE',  #156 ) ;
#24 = DIRECTION ( 'NONE',  ( -3.153425691349006731E-31, -1.000000000000000000, -9.031770143711729009E-17 ) ) ;
#25 = LOCAL_TIME ( 11, 2, 59.00000000000000000, #42 ) ;
#26 = CC_DESIGN_DATE_AND_TIME_ASSIGNMENT ( #166, #27, ( #227 ) ) ;
#27 = DATE_TIME_ROLE ( 'classification_date' ) ;
#28 = UNCERTAINTY_MEASURE_WITH_UNIT (LENGTH_MEASURE( 1.000000000000000082E-05 ), #187, 'distance_accuracy_value', 'NONE');
#29 = EDGE_LOOP ( 'NONE', ( #6 ) ) ;
#30 = DIRECTION ( 'NONE',  ( -1.675421255461904653E-30, 1.000000000000000000, -4.798597193754551952E-16 ) ) ;
#31 = CARTESIAN_POINT ( 'NONE',  ( 4.719531867767578911E-14, 2.273999999999998245, 13.51727650743036158 ) ) ;
#32 = VERTEX_POINT ( 'NONE', #223 ) ;
#33 = DIRECTION ( 'NONE',  ( -3.491481338843133355E-15, 9.031770143711729009E-17, -1.000000000000000000 ) ) ;
#34 = FACE_BOUND ( 'NONE', #41, .T. ) ;
#35 = VERTEX_POINT ( 'NONE', #107 ) ;
#36 = PLANE ( 'NONE',  #8 ) ;
#37 = APPROVAL_ROLE ( '' ) ;
#38 = DIRECTION ( 'NONE',  ( 0.0000000000000000000, 1.000000000000000000, 0.0000000000000000000 ) ) ;
#39 = DIRECTION ( 'NONE',  ( 0.0000000000000000000, 1.000000000000000000, 0.0000000000000000000 ) ) ;
#40 = FACE_OUTER_BOUND ( 'NONE', #4, .T. ) ;
#41 = EDGE_LOOP ( 'NONE', ( #43 ) ) ;
#42 = COORDINATED_UNIVERSAL_TIME_OFFSET ( 1, 0, .AHEAD. ) ;
#43 = ORIENTED_EDGE ( 'NONE', *, *, #7, .T. ) ;
#44 = APPROVAL_STATUS ( 'not_yet_approved' ) ;
#45 = CIRCLE ( 'NONE', #138, 2.273999999999991584 ) ;
#46 = DIRECTION ( 'NONE',  ( 3.153425691349006731E-31, 1.000000000000000000, 9.031770143711729009E-17 ) ) ;
#47 = CIRCLE ( 'NONE', #157, 2.043059892324148752 ) ;
#48 = CLOSED_SHELL ( 'NONE', ( #215, #85, #54, #15 ) ) ;
#49 = CC_DESIGN_APPROVAL ( #102, ( #143 ) ) ;
#50 = ADVANCED_FACE ( 'NONE', ( #226, #56 ), #51, .T. ) ;
#51 = CONICAL_SURFACE ( 'NONE', #87, 1.999999999999995337, 0.7853981633974516097 ) ;
#52 = VERTEX_POINT ( 'NONE', #91 ) ;
#53 = DIRECTION ( 'NONE',  ( -3.491481338843133355E-15, 9.031770143711729009E-17, -1.000000000000000000 ) ) ;
#54 = ADVANCED_FACE ( 'NONE', ( #230, #111 ), #104, .T. ) ;
#55 = MANIFOLD_SOLID_BREP ( 'Corps-Déplacer/Copier1[1]', #152 ) ;
#56 = FACE_OUTER_BOUND ( 'NONE', #149, .T. ) ;
#57 = APPLICATION_CONTEXT ( 'configuration controlled 3d designs of mechanical parts and assemblies' ) ;
#58 = APPROVAL_STATUS ( 'not_yet_approved' ) ;
#59 = DIRECTION ( 'NONE',  ( -1.693869783981738882E-30, 1.000000000000000000, -4.767819579971438613E-16 ) ) ;
#60 = APPROVAL_DATE_TIME ( #237, #135 ) ;
#61 = AXIS2_PLACEMENT_3D ( 'NONE', #207, #98, #39 ) ;
#62 = EDGE_LOOP ( 'NONE', ( #97 ) ) ;
#63 = CALENDAR_DATE ( 2021, 26, 11 ) ;
#64 = FACE_OUTER_BOUND ( 'NONE', #62, .T. ) ;
#65 = CC_DESIGN_PERSON_AND_ORGANIZATION_ASSIGNMENT ( #96, #118, ( #143 ) ) ;
#66 = APPLICATION_CONTEXT ( 'configuration controlled 3d designs of mechanical parts and assemblies' ) ;
#67 = PRODUCT_RELATED_PRODUCT_CATEGORY ( 'detail', '', ( #204 ) ) ;
#68 =( GEOMETRIC_REPRESENTATION_CONTEXT ( 3 ) GLOBAL_UNCERTAINTY_ASSIGNED_CONTEXT ( ( #28 ) ) GLOBAL_UNIT_ASSIGNED_CONTEXT ( ( #187, #239, #127 ) ) REPRESENTATION_CONTEXT ( 'NONE', 'WORKASPACE' ) );
#69 = SECURITY_CLASSIFICATION_LEVEL ( 'unclassified' ) ;
#70 = AXIS2_PLACEMENT_3D ( 'NONE', #139, #33, #71 ) ;
#71 = DIRECTION ( 'NONE',  ( 0.0000000000000000000, 1.000000000000000000, 0.0000000000000000000 ) ) ;
#72 = DIRECTION ( 'NONE',  ( -3.491481338843133355E-15, -4.798597193754551952E-16, -1.000000000000000000 ) ) ;
#73 = DIRECTION ( 'NONE',  ( -3.491481338843133355E-15, 9.031770143711729009E-17, -1.000000000000000000 ) ) ;
#74 = FACE_OUTER_BOUND ( 'NONE', #165, .T. ) ;
#75 = CC_DESIGN_SECURITY_CLASSIFICATION ( #227, ( #172 ) ) ;
#76 = DIRECTION ( 'NONE',  ( -3.491481338843133355E-15, -4.798597193754551952E-16, -1.000000000000000000 ) ) ;
#77 = CALENDAR_DATE ( 2021, 26, 11 ) ;
#78 = EDGE_CURVE ( 'NONE', #32, #32, #82, .T. ) ;
#79 = EDGE_LOOP ( 'NONE', ( #229 ) ) ;
#80 = MECHANICAL_CONTEXT ( 'NONE', #66, 'mechanical' ) ;
#81 = ORIENTED_EDGE ( 'NONE', *, *, #228, .F. ) ;
#82 = CIRCLE ( 'NONE', #186, 2.273999999999998689 ) ;
#83 = DESIGN_CONTEXT ( 'detailed design', #57, 'design' ) ;
#84 = AXIS2_PLACEMENT_3D ( 'NONE', #213, #161, #93 ) ;
#85 = ADVANCED_FACE ( 'NONE', ( #40, #242 ), #243, .T. ) ;
#86 = DATE_TIME_ROLE ( 'creation_date' ) ;
#87 = AXIS2_PLACEMENT_3D ( 'NONE', #168, #112, #38 ) ;
#88 = ORIENTED_EDGE ( 'NONE', *, *, #94, .T. ) ;
#89 = AXIS2_PLACEMENT_3D ( 'NONE', #128, #210, #46 ) ;
#90 = DIRECTION ( 'NONE',  ( 0.0000000000000000000, 1.000000000000000000, 0.0000000000000000000 ) ) ;
#91 = CARTESIAN_POINT ( 'NONE',  ( 4.719531867767578911E-14, 2.273999999999998245, 13.51727650743036158 ) ) ;
#92 = FACE_OUTER_BOUND ( 'NONE', #233, .T. ) ;
#93 = DIRECTION ( 'NONE',  ( 3.153425691349006731E-31, 1.000000000000000000, 9.031770143711729009E-17 ) ) ;
#94 = EDGE_CURVE ( 'NONE', #125, #125, #14, .T. ) ;
#95 = AXIS2_PLACEMENT_3D ( 'NONE', #179, #19, #90 ) ;
#96 = PERSON_AND_ORGANIZATION ( #221, #103 ) ;
#97 = ORIENTED_EDGE ( 'NONE', *, *, #191, .T. ) ;
#98 = DIRECTION ( 'NONE',  ( -3.491481338843133355E-15, 9.031770143711729009E-17, -1.000000000000000000 ) ) ;
#99 = DIRECTION ( 'NONE',  ( -3.491481338843133355E-15, -4.798597193754551952E-16, -1.000000000000000000 ) ) ;
#100 = ORIENTED_EDGE ( 'NONE', *, *, #228, .T. ) ;
#101 = DATE_AND_TIME ( #146, #25 ) ;
#102 = APPROVAL ( #58, 'UNSPECIFIED' ) ;
#103 = ORGANIZATION ( 'UNSPECIFIED', 'UNSPECIFIED', '' ) ;
#104 = CONICAL_SURFACE ( 'NONE', #219, 2.043059892324148752, 0.5235987755982979275 ) ;
#105 = FACE_OUTER_BOUND ( 'NONE', #29, .T. ) ;
#106 = COORDINATED_UNIVERSAL_TIME_OFFSET ( 1, 0, .AHEAD. ) ;
#107 = CARTESIAN_POINT ( 'NONE',  ( 0.0000000000000000000, 2.043059892324148752, 0.0000000000000000000 ) ) ;
#108 = CARTESIAN_POINT ( 'NONE',  ( 4.719531867767578279E-14, 6.486396511575966285E-15, 13.51727650743035980 ) ) ;
#109 = ORIENTED_EDGE ( 'NONE', *, *, #78, .F. ) ;
#110 = CC_DESIGN_PERSON_AND_ORGANIZATION_ASSIGNMENT ( #133, #217, ( #227 ) ) ;
#111 = FACE_BOUND ( 'NONE', #79, .T. ) ;
#112 = DIRECTION ( 'NONE',  ( -3.491481338843133355E-15, 9.031770143711729009E-17, -1.000000000000000000 ) ) ;
#113 = AXIS2_PLACEMENT_3D ( 'NONE', #121, #194, #30 ) ;
#114 = LOCAL_TIME ( 11, 2, 59.00000000000000000, #231 ) ;
#115 = ORIENTED_EDGE ( 'NONE', *, *, #191, .F. ) ;
#116 = CARTESIAN_POINT ( 'NONE',  ( 2.793185071074506684E-13, -7.225416114969383207E-15, 80.00000000000000000 ) ) ;
#117 = CARTESIAN_POINT ( 'NONE',  ( -1.711492984890794706E-30, 2.043059892324148752, -4.901910732989569324E-16 ) ) ;
#118 = PERSON_AND_ORGANIZATION_ROLE ( 'creator' ) ;
#119 = CALENDAR_DATE ( 2021, 26, 11 ) ;
#120 = CIRCLE ( 'NONE', #164, 1.999999999999991784 ) ;
#121 = CARTESIAN_POINT ( 'NONE',  ( 0.0000000000000000000, 0.0000000000000000000, 0.0000000000000000000 ) ) ;
#122 = ORIENTED_EDGE ( 'NONE', *, *, #214, .T. ) ;
#123 = CALENDAR_DATE ( 2021, 26, 11 ) ;
#124 = APPROVAL_STATUS ( 'not_yet_approved' ) ;
#125 = VERTEX_POINT ( 'NONE', #225 ) ;
#126 = CC_DESIGN_PERSON_AND_ORGANIZATION_ASSIGNMENT ( #158, #5, ( #172 ) ) ;
#127 =( NAMED_UNIT ( * ) SI_UNIT ( $, .STERADIAN. ) SOLID_ANGLE_UNIT ( ) );
#128 = CARTESIAN_POINT ( 'NONE',  ( 4.719531867767578279E-14, 2.273999999999998245, 13.51727650743035980 ) ) ;
#129 = APPLICATION_PROTOCOL_DEFINITION ( 'international standard', 'config_control_design', 1994, #66 ) ;
#130 = CYLINDRICAL_SURFACE ( 'NONE', #84, 1.999999999999993561 ) ;
#131 = LOCAL_TIME ( 11, 2, 59.00000000000000000, #208 ) ;
#132 = ADVANCED_FACE ( 'NONE', ( #140 ), #144, .T. ) ;
#133 = PERSON_AND_ORGANIZATION ( #221, #103 ) ;
#134 = PERSON_AND_ORGANIZATION ( #221, #103 ) ;
#135 = APPROVAL ( #44, 'UNSPECIFIED' ) ;
#136 = VERTEX_POINT ( 'NONE', #197 ) ;
#137 = AXIS2_PLACEMENT_3D ( 'NONE', #159, #53, #199 ) ;
#138 = AXIS2_PLACEMENT_3D ( 'NONE', #170, #192, #141 ) ;
#139 = CARTESIAN_POINT ( 'NONE',  ( 4.719531867767578911E-14, -1.220849343841054889E-15, 13.51727650743036158 ) ) ;
#140 = FACE_OUTER_BOUND ( 'NONE', #211, .T. ) ;
#141 = DIRECTION ( 'NONE',  ( -2.710191654370790478E-30, 1.000000000000000000, -7.628511327954325052E-16 ) ) ;
#142 = DIRECTION ( 'NONE',  ( -1.675421255461904653E-30, 1.000000000000000000, -4.798597193754551952E-16 ) ) ;
#143 = PRODUCT_DEFINITION ( 'UNKNOWN', '', #172, #83 ) ;
#144 = PLANE ( 'NONE',  #89 ) ;
#145 = CC_DESIGN_PERSON_AND_ORGANIZATION_ASSIGNMENT ( #148, #212, ( #204 ) ) ;
#146 = CALENDAR_DATE ( 2021, 26, 11 ) ;
#147 = EDGE_LOOP ( 'NONE', ( #176 ) ) ;
#148 = PERSON_AND_ORGANIZATION ( #221, #103 ) ;
#149 = EDGE_LOOP ( 'NONE', ( #115 ) ) ;
#150 = DIRECTION ( 'NONE',  ( 1.000000000000000000, 0.0000000000000000000, 0.0000000000000000000 ) ) ;
#151 = CC_DESIGN_PERSON_AND_ORGANIZATION_ASSIGNMENT ( #134, #181, ( #172 ) ) ;
#152 = CLOSED_SHELL ( 'NONE', ( #180, #50, #3, #198, #132 ) ) ;
#153 = APPROVAL_PERSON_ORGANIZATION ( #235, #102, #37 ) ;
#154 = APPROVAL_ROLE ( '' ) ;
#155 = CARTESIAN_POINT ( 'NONE',  ( 2.779219145719134403E-13, 1.999999999999988010, 79.60000000000000853 ) ) ;
#156 = AXIS2_PLACEMENT_3D ( 'NONE', #117, #99, #142 ) ;
#157 = AXIS2_PLACEMENT_3D ( 'NONE', #9, #72, #224 ) ;
#158 = PERSON_AND_ORGANIZATION ( #221, #103 ) ;
#159 = CARTESIAN_POINT ( 'NONE',  ( 2.779219145719134403E-13, -7.189289034394536528E-15, 79.60000000000000853 ) ) ;
#160 = VERTEX_POINT ( 'NONE', #31 ) ;
#161 = DIRECTION ( 'NONE',  ( -3.491481338843133355E-15, 9.031770143711729009E-17, -1.000000000000000000 ) ) ;
#162 = PRODUCT_DEFINITION_SHAPE ( 'NONE', 'NONE',  #143 ) ;
#163 = DIRECTION ( 'NONE',  ( 3.491481338843133355E-15, 4.798597193754551952E-16, 1.000000000000000000 ) ) ;
#164 = AXIS2_PLACEMENT_3D ( 'NONE', #182, #73, #20 ) ;
#165 = EDGE_LOOP ( 'NONE', ( #188 ) ) ;
#166 = DATE_AND_TIME ( #119, #131 ) ;
#167 = ORIENTED_EDGE ( 'NONE', *, *, #238, .T. ) ;
#168 = CARTESIAN_POINT ( 'NONE',  ( 2.779219145719134403E-13, -7.189289034394536528E-15, 79.60000000000000853 ) ) ;
#169 = APPROVAL_ROLE ( '' ) ;
#170 = CARTESIAN_POINT ( 'NONE',  ( 4.719531867767579542E-14, 6.486396511575967073E-15, 13.51727650743036335 ) ) ;
#171 = EDGE_LOOP ( 'NONE', ( #236 ) ) ;
#172 = PRODUCT_DEFINITION_FORMATION_WITH_SPECIFIED_SOURCE ( 'ANY', '', #204, .NOT_KNOWN. ) ;
#173 = DATE_AND_TIME ( #63, #240 ) ;
#174 = CIRCLE ( 'NONE', #70, 2.273999999999999577 ) ;
#175 = ADVANCED_BREP_SHAPE_REPRESENTATION ( '321358', ( #55, #218, #195 ), #68 ) ;
#176 = ORIENTED_EDGE ( 'NONE', *, *, #78, .T. ) ;
#177 = LOCAL_TIME ( 11, 2, 59.00000000000000000, #106 ) ;
#178 = APPROVAL_DATE_TIME ( #196, #21 ) ;
#179 = CARTESIAN_POINT ( 'NONE',  ( 4.719531867767578911E-14, -1.220849343841054889E-15, 13.51727650743036158 ) ) ;
#180 = ADVANCED_FACE ( 'NONE', ( #74 ), #222, .T. ) ;
#181 = PERSON_AND_ORGANIZATION_ROLE ( 'design_supplier' ) ;
#182 = CARTESIAN_POINT ( 'NONE',  ( 4.885231259955590439E-14, -1.263712492114123682E-15, 13.99185842870425134 ) ) ;
#183 = COORDINATED_UNIVERSAL_TIME_OFFSET ( 1, 0, .AHEAD. ) ;
#184 = DIRECTION ( 'NONE',  ( 0.0000000000000000000, 0.0000000000000000000, 1.000000000000000000 ) ) ;
#185 = PERSON_AND_ORGANIZATION ( #221, #103 ) ;
#186 = AXIS2_PLACEMENT_3D ( 'NONE', #206, #76, #59 ) ;
#187 =( LENGTH_UNIT ( ) NAMED_UNIT ( * ) SI_UNIT ( .MILLI., .METRE. ) );
#188 = ORIENTED_EDGE ( 'NONE', *, *, #94, .F. ) ;
#189 = DIRECTION ( 'NONE',  ( 3.491481338843133355E-15, -9.031770143711729009E-17, 1.000000000000000000 ) ) ;
#190 = EDGE_LOOP ( 'NONE', ( #81 ) ) ;
#191 = EDGE_CURVE ( 'NONE', #17, #17, #234, .T. ) ;
#192 = DIRECTION ( 'NONE',  ( -3.491481338843133355E-15, -4.798597193754551952E-16, -1.000000000000000000 ) ) ;
#193 = CC_DESIGN_APPROVAL ( #135, ( #227 ) ) ;
#194 = DIRECTION ( 'NONE',  ( -3.491481338843133355E-15, -4.798597193754551952E-16, -1.000000000000000000 ) ) ;
#195 = AXIS2_PLACEMENT_3D ( 'NONE', #11, #184, #150 ) ;
#196 = DATE_AND_TIME ( #123, #177 ) ;
#197 = CARTESIAN_POINT ( 'NONE',  ( 4.885231259955590439E-14, 1.999999999999990452, 13.99185842870425134 ) ) ;
#198 = ADVANCED_FACE ( 'NONE', ( #34, #105 ), #2, .T. ) ;
#199 = DIRECTION ( 'NONE',  ( 0.0000000000000000000, 1.000000000000000000, 0.0000000000000000000 ) ) ;
#200 = PERSON_AND_ORGANIZATION ( #221, #103 ) ;
#201 = FACE_OUTER_BOUND ( 'NONE', #190, .T. ) ;
#202 = APPLICATION_PROTOCOL_DEFINITION ( 'international standard', 'config_control_design', 1994, #57 ) ;
#203 = EDGE_LOOP ( 'NONE', ( #88 ) ) ;
#204 = PRODUCT ( '321358', '321358', '', ( #80 ) ) ;
#205 = APPROVAL_DATE_TIME ( #173, #102 ) ;
#206 = CARTESIAN_POINT ( 'NONE',  ( 1.396592535537256695E-15, 1.919438877501825612E-16, 0.4000000000000010214 ) ) ;
#207 = CARTESIAN_POINT ( 'NONE',  ( 2.793185071074506684E-13, -7.225416114969383207E-15, 80.00000000000000000 ) ) ;
#208 = COORDINATED_UNIVERSAL_TIME_OFFSET ( 1, 0, .AHEAD. ) ;
#209 = CC_DESIGN_APPROVAL ( #21, ( #172 ) ) ;
#210 = DIRECTION ( 'NONE',  ( -3.491481338843133355E-15, 9.031770143711729009E-17, -1.000000000000000000 ) ) ;
#211 = EDGE_LOOP ( 'NONE', ( #167 ) ) ;
#212 = PERSON_AND_ORGANIZATION_ROLE ( 'design_owner' ) ;
#213 = CARTESIAN_POINT ( 'NONE',  ( 0.0000000000000000000, 0.0000000000000000000, 0.0000000000000000000 ) ) ;
#214 = EDGE_CURVE ( 'NONE', #35, #35, #47, .T. ) ;
#215 = ADVANCED_FACE ( 'NONE', ( #201 ), #36, .T. ) ;
#216 = AXIS2_PLACEMENT_3D ( 'NONE', #116, #189, #24 ) ;
#217 = PERSON_AND_ORGANIZATION_ROLE ( 'classification_officer' ) ;
#218 = MANIFOLD_SOLID_BREP ( 'Corps-Déplacer/Copier1[2]', #48 ) ;
#219 = AXIS2_PLACEMENT_3D ( 'NONE', #22, #163, #10 ) ;
#220 = APPROVAL_PERSON_ORGANIZATION ( #185, #135, #169 ) ;
#221 = PERSON ( 'UNSPECIFIED', 'UNSPECIFIED', 'UNSPECIFIED', ('UNSPECIFIED'), ('UNSPECIFIED'), ('UNSPECIFIED') ) ;
#222 = PLANE ( 'NONE',  #216 ) ;
#223 = CARTESIAN_POINT ( 'NONE',  ( 1.396592535537252948E-15, 2.273999999999998689, 0.3999999999999999112 ) ) ;
#224 = DIRECTION ( 'NONE',  ( -1.675421255461905003E-30, 1.000000000000000000, -4.798597193754552938E-16 ) ) ;
#225 = CARTESIAN_POINT ( 'NONE',  ( 2.793185071074506684E-13, 1.599999999999987876, 80.00000000000000000 ) ) ;
#226 = FACE_BOUND ( 'NONE', #203, .T. ) ;
#227 = SECURITY_CLASSIFICATION ( '', '', #69 ) ;
#228 = EDGE_CURVE ( 'NONE', #52, #52, #45, .T. ) ;
#229 = ORIENTED_EDGE ( 'NONE', *, *, #214, .F. ) ;
#230 = FACE_OUTER_BOUND ( 'NONE', #147, .T. ) ;
#231 = COORDINATED_UNIVERSAL_TIME_OFFSET ( 1, 0, .AHEAD. ) ;
#232 = FACE_OUTER_BOUND ( 'NONE', #171, .T. ) ;
#233 = EDGE_LOOP ( 'NONE', ( #122 ) ) ;
#234 = CIRCLE ( 'NONE', #137, 1.999999999999995337 ) ;
#235 = PERSON_AND_ORGANIZATION ( #221, #103 ) ;
#236 = ORIENTED_EDGE ( 'NONE', *, *, #7, .F. ) ;
#237 = DATE_AND_TIME ( #77, #114 ) ;
#238 = EDGE_CURVE ( 'NONE', #160, #160, #174, .T. ) ;
#239 =( NAMED_UNIT ( * ) PLANE_ANGLE_UNIT ( ) SI_UNIT ( $, .RADIAN. ) );
#240 = LOCAL_TIME ( 11, 2, 59.00000000000000000, #183 ) ;
#241 = CC_DESIGN_DATE_AND_TIME_ASSIGNMENT ( #101, #86, ( #143 ) ) ;
#242 = FACE_OUTER_BOUND ( 'NONE', #12, .T. ) ;
#243 = CYLINDRICAL_SURFACE ( 'NONE', #113, 2.273999999999995136 ) ;
ENDSEC;
END-ISO-10303-21;
