ISO-10303-21;
HEADER;
FILE_DESCRIPTION (( 'STEP AP203' ),
    '1' );
FILE_NAME ('321357.step',
    '2021-11-26T10:02:58',
    ( '' ),
    ( '' ),
    'SwSTEP 2.0',
    'SolidWorks 2019',
    '' );
FILE_SCHEMA (( 'CONFIG_CONTROL_DESIGN' ));
ENDSEC;

DATA;
#1 = AXIS2_PLACEMENT_3D ( 'NONE', #198, #182, #15 ) ;
#2 = CC_DESIGN_DATE_AND_TIME_ASSIGNMENT ( #75, #18, ( #65 ) ) ;
#3 = EDGE_LOOP ( 'NONE', ( #63 ) ) ;
#4 = CC_DESIGN_PERSON_AND_ORGANIZATION_ASSIGNMENT ( #152, #113, ( #61 ) ) ;
#5 = AXIS2_PLACEMENT_3D ( 'NONE', #103, #213, #236 ) ;
#6 = PERSON_AND_ORGANIZATION ( #91, #116 ) ;
#7 = PERSON_AND_ORGANIZATION ( #91, #116 ) ;
#8 = CLOSED_SHELL ( 'NONE', ( #85, #155, #237, #154 ) ) ;
#9 = APPROVAL_PERSON_ORGANIZATION ( #153, #120, #26 ) ;
#10 = DIRECTION ( 'NONE',  ( -1.673800995705549299E-30, 1.000000000000000000, -4.793956585373433664E-16 ) ) ;
#11 = CARTESIAN_POINT ( 'NONE',  ( 2.793185071074506684E-13, 1.599999999999987876, 80.00000000000000000 ) ) ;
#12 = EDGE_LOOP ( 'NONE', ( #83 ) ) ;
#13 = DIRECTION ( 'NONE',  ( 0.0000000000000000000, 1.000000000000000000, 0.0000000000000000000 ) ) ;
#14 = ADVANCED_BREP_SHAPE_REPRESENTATION ( '321357', ( #146, #151, #157 ), #46 ) ;
#15 = DIRECTION ( 'NONE',  ( 0.0000000000000000000, 1.000000000000000000, 0.0000000000000000000 ) ) ;
#16 = VERTEX_POINT ( 'NONE', #92 ) ;
#17 = UNCERTAINTY_MEASURE_WITH_UNIT (LENGTH_MEASURE( 1.000000000000000082E-05 ), #214, 'distance_accuracy_value', 'NONE');
#18 = DATE_TIME_ROLE ( 'creation_date' ) ;
#19 = AXIS2_PLACEMENT_3D ( 'NONE', #114, #42, #112 ) ;
#20 = PERSON_AND_ORGANIZATION ( #91, #116 ) ;
#21 = AXIS2_PLACEMENT_3D ( 'NONE', #232, #201, #107 ) ;
#22 = APPLICATION_PROTOCOL_DEFINITION ( 'international standard', 'config_control_design', 1994, #109 ) ;
#23 = DIRECTION ( 'NONE',  ( -3.491481338843133355E-15, 9.031770143711729009E-17, -1.000000000000000000 ) ) ;
#24 = CALENDAR_DATE ( 2021, 26, 11 ) ;
#25 = APPROVAL ( #134, 'UNSPECIFIED' ) ;
#26 = APPROVAL_ROLE ( '' ) ;
#27 = AXIS2_PLACEMENT_3D ( 'NONE', #161, #47, #158 ) ;
#28 = FACE_BOUND ( 'NONE', #181, .T. ) ;
#29 = DIRECTION ( 'NONE',  ( -3.491481338843133355E-15, -4.793956585373433664E-16, -1.000000000000000000 ) ) ;
#30 = CC_DESIGN_PERSON_AND_ORGANIZATION_ASSIGNMENT ( #41, #31, ( #173 ) ) ;
#31 = PERSON_AND_ORGANIZATION_ROLE ( 'creator' ) ;
#32 = CLOSED_SHELL ( 'NONE', ( #192, #228, #180, #141, #73 ) ) ;
#33 = CARTESIAN_POINT ( 'NONE',  ( 4.722555579303856415E-14, 2.268999999999998352, 13.52593676146820556 ) ) ;
#34 = DIRECTION ( 'NONE',  ( -3.491481338843133355E-15, 9.031770143711729009E-17, -1.000000000000000000 ) ) ;
#35 = CARTESIAN_POINT ( 'NONE',  ( 2.793185071074506684E-13, -7.225416114969383207E-15, 80.00000000000000000 ) ) ;
#36 = VERTEX_POINT ( 'NONE', #184 ) ;
#37 = AXIS2_PLACEMENT_3D ( 'NONE', #205, #216, #13 ) ;
#38 = EDGE_CURVE ( 'NONE', #203, #203, #186, .T. ) ;
#39 = DIRECTION ( 'NONE',  ( 3.491481338843133355E-15, 4.793956585373433664E-16, 1.000000000000000000 ) ) ;
#40 = DESIGN_CONTEXT ( 'detailed design', #137, 'design' ) ;
#41 = PERSON_AND_ORGANIZATION ( #91, #116 ) ;
#42 = DIRECTION ( 'NONE',  ( 3.491481338843133355E-15, 4.793956585373433664E-16, 1.000000000000000000 ) ) ;
#43 = PLANE ( 'NONE',  #19 ) ;
#44 = DATE_TIME_ROLE ( 'classification_date' ) ;
#45 = LOCAL_TIME ( 11, 2, 58.00000000000000000, #227 ) ;
#46 =( GEOMETRIC_REPRESENTATION_CONTEXT ( 3 ) GLOBAL_UNCERTAINTY_ASSIGNED_CONTEXT ( ( #17 ) ) GLOBAL_UNIT_ASSIGNED_CONTEXT ( ( #214, #208, #223 ) ) REPRESENTATION_CONTEXT ( 'NONE', 'WORKASPACE' ) );
#47 = DIRECTION ( 'NONE',  ( -3.491481338843133355E-15, 9.031770143711729009E-17, -1.000000000000000000 ) ) ;
#48 = CIRCLE ( 'NONE', #5, 2.268999999999997907 ) ;
#49 = CARTESIAN_POINT ( 'NONE',  ( 0.0000000000000000000, 0.0000000000000000000, 0.0000000000000000000 ) ) ;
#50 = DIRECTION ( 'NONE',  ( -3.491481338843133355E-15, 9.031770143711729009E-17, -1.000000000000000000 ) ) ;
#51 = FACE_OUTER_BOUND ( 'NONE', #70, .T. ) ;
#52 = PLANE ( 'NONE',  #164 ) ;
#53 = FACE_BOUND ( 'NONE', #3, .T. ) ;
#54 = FACE_OUTER_BOUND ( 'NONE', #229, .T. ) ;
#55 = APPROVAL_ROLE ( '' ) ;
#56 = DIRECTION ( 'NONE',  ( 1.000000000000000000, 0.0000000000000000000, 0.0000000000000000000 ) ) ;
#57 = DIRECTION ( 'NONE',  ( -3.491481338843133355E-15, 9.031770143711729009E-17, -1.000000000000000000 ) ) ;
#58 = AXIS2_PLACEMENT_3D ( 'NONE', #199, #34, #106 ) ;
#59 = CONICAL_SURFACE ( 'NONE', #219, 1.999999999999995337, 0.7853981633974516097 ) ;
#60 = SECURITY_CLASSIFICATION_LEVEL ( 'unclassified' ) ;
#61 = PRODUCT ( '321357', '321357', '', ( #136 ) ) ;
#62 = EDGE_CURVE ( 'NONE', #142, #142, #176, .T. ) ;
#63 = ORIENTED_EDGE ( 'NONE', *, *, #241, .T. ) ;
#64 = DIRECTION ( 'NONE',  ( 0.0000000000000000000, 1.000000000000000000, 0.0000000000000000000 ) ) ;
#65 = PRODUCT_DEFINITION ( 'UNKNOWN', '', #173, #40 ) ;
#66 = CARTESIAN_POINT ( 'NONE',  ( 4.722555579303856415E-14, 2.268999999999998352, 13.52593676146820556 ) ) ;
#67 = CONICAL_SURFACE ( 'NONE', #172, 2.268999999999999684, 0.5235987755982940417 ) ;
#68 = ORIENTED_EDGE ( 'NONE', *, *, #221, .T. ) ;
#69 = CIRCLE ( 'NONE', #21, 2.268999999999992134 ) ;
#70 = EDGE_LOOP ( 'NONE', ( #197 ) ) ;
#71 = DIRECTION ( 'NONE',  ( -3.491481338843133355E-15, 9.031770143711729009E-17, -1.000000000000000000 ) ) ;
#72 = FACE_OUTER_BOUND ( 'NONE', #119, .T. ) ;
#73 = ADVANCED_FACE ( 'NONE', ( #235 ), #52, .T. ) ;
#74 = CALENDAR_DATE ( 2021, 26, 11 ) ;
#75 = DATE_AND_TIME ( #78, #234 ) ;
#76 = EDGE_CURVE ( 'NONE', #36, #36, #194, .T. ) ;
#77 = DIRECTION ( 'NONE',  ( 3.153425691349006731E-31, 1.000000000000000000, 9.031770143711729009E-17 ) ) ;
#78 = CALENDAR_DATE ( 2021, 26, 11 ) ;
#79 = AXIS2_PLACEMENT_3D ( 'NONE', #220, #174, #131 ) ;
#80 = PERSON_AND_ORGANIZATION_ROLE ( 'design_supplier' ) ;
#81 = COORDINATED_UNIVERSAL_TIME_OFFSET ( 1, 0, .AHEAD. ) ;
#82 = AXIS2_PLACEMENT_3D ( 'NONE', #49, #90, #10 ) ;
#83 = ORIENTED_EDGE ( 'NONE', *, *, #212, .F. ) ;
#84 = FACE_OUTER_BOUND ( 'NONE', #206, .T. ) ;
#85 = ADVANCED_FACE ( 'NONE', ( #210 ), #43, .T. ) ;
#86 = EDGE_LOOP ( 'NONE', ( #68 ) ) ;
#87 = ORIENTED_EDGE ( 'NONE', *, *, #62, .F. ) ;
#88 = DIRECTION ( 'NONE',  ( 3.491481338843133355E-15, -9.031770143711729009E-17, 1.000000000000000000 ) ) ;
#89 = CONICAL_SURFACE ( 'NONE', #123, 2.038059892324148414, 0.5235987755982979275 ) ;
#90 = DIRECTION ( 'NONE',  ( -3.491481338843133355E-15, -4.793956585373433664E-16, -1.000000000000000000 ) ) ;
#91 = PERSON ( 'UNSPECIFIED', 'UNSPECIFIED', 'UNSPECIFIED', ('UNSPECIFIED'), ('UNSPECIFIED'), ('UNSPECIFIED') ) ;
#92 = CARTESIAN_POINT ( 'NONE',  ( 1.396592535537252948E-15, 2.268999999999997907, 0.3999999999999999112 ) ) ;
#93 = AXIS2_PLACEMENT_3D ( 'NONE', #167, #29, #209 ) ;
#94 = ORIENTED_EDGE ( 'NONE', *, *, #62, .T. ) ;
#95 = CC_DESIGN_DATE_AND_TIME_ASSIGNMENT ( #171, #44, ( #150 ) ) ;
#96 = DATE_AND_TIME ( #24, #124 ) ;
#97 = PLANE ( 'NONE',  #79 ) ;
#98 = CC_DESIGN_APPROVAL ( #120, ( #173 ) ) ;
#99 = FACE_OUTER_BOUND ( 'NONE', #233, .T. ) ;
#100 = CARTESIAN_POINT ( 'NONE',  ( 4.722555579303856415E-14, -1.221631518079614580E-15, 13.52593676146820556 ) ) ;
#101 = APPROVAL_STATUS ( 'not_yet_approved' ) ;
#102 = DATE_AND_TIME ( #118, #196 ) ;
#103 = CARTESIAN_POINT ( 'NONE',  ( 1.396592535537256695E-15, 1.917582634149378149E-16, 0.4000000000000010214 ) ) ;
#104 = ORIENTED_EDGE ( 'NONE', *, *, #76, .T. ) ;
#105 = ORIENTED_EDGE ( 'NONE', *, *, #76, .F. ) ;
#106 = DIRECTION ( 'NONE',  ( 0.0000000000000000000, 1.000000000000000000, 0.0000000000000000000 ) ) ;
#107 = DIRECTION ( 'NONE',  ( -2.716163870444767044E-30, 1.000000000000000000, -7.645321621757660646E-16 ) ) ;
#108 = CYLINDRICAL_SURFACE ( 'NONE', #27, 1.999999999999993561 ) ;
#109 = APPLICATION_CONTEXT ( 'configuration controlled 3d designs of mechanical parts and assemblies' ) ;
#110 = APPLICATION_PROTOCOL_DEFINITION ( 'international standard', 'config_control_design', 1994, #137 ) ;
#111 = PERSON_AND_ORGANIZATION ( #91, #116 ) ;
#112 = DIRECTION ( 'NONE',  ( 1.673800995705549299E-30, -1.000000000000000000, 4.793956585373433664E-16 ) ) ;
#113 = PERSON_AND_ORGANIZATION_ROLE ( 'design_owner' ) ;
#114 = CARTESIAN_POINT ( 'NONE',  ( 4.722555579303857046E-14, 6.484275361098511463E-15, 13.52593676146820734 ) ) ;
#115 = CC_DESIGN_PERSON_AND_ORGANIZATION_ASSIGNMENT ( #6, #80, ( #173 ) ) ;
#116 = ORGANIZATION ( 'UNSPECIFIED', 'UNSPECIFIED', '' ) ;
#117 = APPROVAL_ROLE ( '' ) ;
#118 = CALENDAR_DATE ( 2021, 26, 11 ) ;
#119 = EDGE_LOOP ( 'NONE', ( #243 ) ) ;
#120 = APPROVAL ( #185, 'UNSPECIFIED' ) ;
#121 = EDGE_LOOP ( 'NONE', ( #105 ) ) ;
#122 = FACE_OUTER_BOUND ( 'NONE', #86, .T. ) ;
#123 = AXIS2_PLACEMENT_3D ( 'NONE', #129, #39, #238 ) ;
#124 = LOCAL_TIME ( 11, 2, 58.00000000000000000, #189 ) ;
#125 = CARTESIAN_POINT ( 'NONE',  ( 2.779219145719134403E-13, -7.189289034394536528E-15, 79.60000000000000853 ) ) ;
#126 = DIRECTION ( 'NONE',  ( 0.0000000000000000000, 1.000000000000000000, 0.0000000000000000000 ) ) ;
#127 = ORIENTED_EDGE ( 'NONE', *, *, #38, .F. ) ;
#128 = FACE_BOUND ( 'NONE', #121, .T. ) ;
#129 = CARTESIAN_POINT ( 'NONE',  ( 3.411306677079702956E-30, 4.683873268167953278E-31, 9.770370642192820447E-16 ) ) ;
#130 = LOCAL_TIME ( 11, 2, 58.00000000000000000, #239 ) ;
#131 = DIRECTION ( 'NONE',  ( -1.673800995705549299E-30, 1.000000000000000000, -4.793956585373433664E-16 ) ) ;
#132 = ORIENTED_EDGE ( 'NONE', *, *, #212, .T. ) ;
#133 = CIRCLE ( 'NONE', #37, 1.999999999999995337 ) ;
#134 = APPROVAL_STATUS ( 'not_yet_approved' ) ;
#135 = DIRECTION ( 'NONE',  ( 0.0000000000000000000, 1.000000000000000000, 0.0000000000000000000 ) ) ;
#136 = MECHANICAL_CONTEXT ( 'NONE', #109, 'mechanical' ) ;
#137 = APPLICATION_CONTEXT ( 'configuration controlled 3d designs of mechanical parts and assemblies' ) ;
#138 = PERSON_AND_ORGANIZATION ( #91, #116 ) ;
#139 = APPROVAL_DATE_TIME ( #102, #159 ) ;
#140 = SHAPE_DEFINITION_REPRESENTATION ( #231, #14 ) ;
#141 = ADVANCED_FACE ( 'NONE', ( #28, #99 ), #67, .T. ) ;
#142 = VERTEX_POINT ( 'NONE', #195 ) ;
#143 = VERTEX_POINT ( 'NONE', #11 ) ;
#144 = CIRCLE ( 'NONE', #1, 1.599999999999994982 ) ;
#145 = FACE_OUTER_BOUND ( 'NONE', #175, .T. ) ;
#146 = MANIFOLD_SOLID_BREP ( 'Corps-Déplacer/Copier1[1]', #32 ) ;
#147 = ORIENTED_EDGE ( 'NONE', *, *, #38, .T. ) ;
#148 = FACE_OUTER_BOUND ( 'NONE', #200, .T. ) ;
#149 = AXIS2_PLACEMENT_3D ( 'NONE', #165, #50, #126 ) ;
#150 = SECURITY_CLASSIFICATION ( '', '', #60 ) ;
#151 = MANIFOLD_SOLID_BREP ( 'Corps-Déplacer/Copier1[2]', #8 ) ;
#152 = PERSON_AND_ORGANIZATION ( #91, #116 ) ;
#153 = PERSON_AND_ORGANIZATION ( #91, #116 ) ;
#154 = ADVANCED_FACE ( 'NONE', ( #169 ), #97, .T. ) ;
#155 = ADVANCED_FACE ( 'NONE', ( #148, #145 ), #218, .T. ) ;
#156 = EDGE_LOOP ( 'NONE', ( #104 ) ) ;
#157 = AXIS2_PLACEMENT_3D ( 'NONE', #224, #222, #56 ) ;
#158 = DIRECTION ( 'NONE',  ( 3.153425691349006731E-31, 1.000000000000000000, 9.031770143711729009E-17 ) ) ;
#159 = APPROVAL ( #101, 'UNSPECIFIED' ) ;
#160 = EDGE_LOOP ( 'NONE', ( #147 ) ) ;
#161 = CARTESIAN_POINT ( 'NONE',  ( 0.0000000000000000000, 0.0000000000000000000, 0.0000000000000000000 ) ) ;
#162 = VERTEX_POINT ( 'NONE', #33 ) ;
#163 = EDGE_CURVE ( 'NONE', #16, #16, #48, .T. ) ;
#164 = AXIS2_PLACEMENT_3D ( 'NONE', #188, #57, #77 ) ;
#165 = CARTESIAN_POINT ( 'NONE',  ( 4.722555579303856415E-14, -1.221631518079614580E-15, 13.52593676146820556 ) ) ;
#166 = CC_DESIGN_APPROVAL ( #159, ( #150 ) ) ;
#167 = CARTESIAN_POINT ( 'NONE',  ( 3.411306677079702956E-30, 4.683873268167953278E-31, 9.770370642192820447E-16 ) ) ;
#168 = DATE_AND_TIME ( #74, #130 ) ;
#169 = FACE_OUTER_BOUND ( 'NONE', #156, .T. ) ;
#170 = PERSON_AND_ORGANIZATION_ROLE ( 'creator' ) ;
#171 = DATE_AND_TIME ( #191, #45 ) ;
#172 = AXIS2_PLACEMENT_3D ( 'NONE', #100, #23, #135 ) ;
#173 = PRODUCT_DEFINITION_FORMATION_WITH_SPECIFIED_SOURCE ( 'ANY', '', #61, .NOT_KNOWN. ) ;
#174 = DIRECTION ( 'NONE',  ( -3.491481338843133355E-15, -4.793956585373433664E-16, -1.000000000000000000 ) ) ;
#175 = EDGE_LOOP ( 'NONE', ( #202 ) ) ;
#176 = CIRCLE ( 'NONE', #58, 1.999999999999991784 ) ;
#177 = CARTESIAN_POINT ( 'NONE',  ( 2.779219145719134403E-13, 1.999999999999988010, 79.60000000000000853 ) ) ;
#178 = APPROVAL_PERSON_ORGANIZATION ( #7, #159, #117 ) ;
#179 = VERTEX_POINT ( 'NONE', #177 ) ;
#180 = ADVANCED_FACE ( 'NONE', ( #122, #84 ), #108, .T. ) ;
#181 = EDGE_LOOP ( 'NONE', ( #94 ) ) ;
#182 = DIRECTION ( 'NONE',  ( -3.491481338843133355E-15, 9.031770143711729009E-17, -1.000000000000000000 ) ) ;
#183 = CC_DESIGN_APPROVAL ( #25, ( #65 ) ) ;
#184 = CARTESIAN_POINT ( 'NONE',  ( -6.842277657836020854E-46, 2.038059892324148414, 0.0000000000000000000 ) ) ;
#185 = APPROVAL_STATUS ( 'not_yet_approved' ) ;
#186 = CIRCLE ( 'NONE', #149, 2.268999999999999684 ) ;
#187 = COORDINATED_UNIVERSAL_TIME_OFFSET ( 1, 0, .AHEAD. ) ;
#188 = CARTESIAN_POINT ( 'NONE',  ( 4.722555579303857046E-14, 2.268999999999998352, 13.52593676146820734 ) ) ;
#189 = COORDINATED_UNIVERSAL_TIME_OFFSET ( 1, 0, .AHEAD. ) ;
#190 = PRODUCT_RELATED_PRODUCT_CATEGORY ( 'detail', '', ( #61 ) ) ;
#191 = CALENDAR_DATE ( 2021, 26, 11 ) ;
#192 = ADVANCED_FACE ( 'NONE', ( #72 ), #215, .T. ) ;
#193 = ORIENTED_EDGE ( 'NONE', *, *, #163, .T. ) ;
#194 = CIRCLE ( 'NONE', #93, 2.038059892324148414 ) ;
#195 = CARTESIAN_POINT ( 'NONE',  ( 4.885231259955590439E-14, 1.999999999999990452, 13.99185842870425134 ) ) ;
#196 = LOCAL_TIME ( 11, 2, 58.00000000000000000, #81 ) ;
#197 = ORIENTED_EDGE ( 'NONE', *, *, #221, .F. ) ;
#198 = CARTESIAN_POINT ( 'NONE',  ( 2.793185071074506684E-13, -7.225416114969383207E-15, 80.00000000000000000 ) ) ;
#199 = CARTESIAN_POINT ( 'NONE',  ( 4.885231259955590439E-14, -1.263712492114123682E-15, 13.99185842870425134 ) ) ;
#200 = EDGE_LOOP ( 'NONE', ( #132 ) ) ;
#201 = DIRECTION ( 'NONE',  ( -3.491481338843133355E-15, -4.793956585373433664E-16, -1.000000000000000000 ) ) ;
#202 = ORIENTED_EDGE ( 'NONE', *, *, #163, .F. ) ;
#203 = VERTEX_POINT ( 'NONE', #66 ) ;
#204 = CC_DESIGN_PERSON_AND_ORGANIZATION_ASSIGNMENT ( #138, #226, ( #150 ) ) ;
#205 = CARTESIAN_POINT ( 'NONE',  ( 2.779219145719134403E-13, -7.189289034394536528E-15, 79.60000000000000853 ) ) ;
#206 = EDGE_LOOP ( 'NONE', ( #87 ) ) ;
#207 = APPROVAL_DATE_TIME ( #168, #120 ) ;
#208 =( NAMED_UNIT ( * ) PLANE_ANGLE_UNIT ( ) SI_UNIT ( $, .RADIAN. ) );
#209 = DIRECTION ( 'NONE',  ( -1.673800995705548948E-30, 1.000000000000000000, -4.793956585373432678E-16 ) ) ;
#210 = FACE_OUTER_BOUND ( 'NONE', #12, .T. ) ;
#211 = CC_DESIGN_SECURITY_CLASSIFICATION ( #150, ( #173 ) ) ;
#212 = EDGE_CURVE ( 'NONE', #162, #162, #69, .T. ) ;
#213 = DIRECTION ( 'NONE',  ( -3.491481338843133355E-15, -4.793956585373433664E-16, -1.000000000000000000 ) ) ;
#214 =( LENGTH_UNIT ( ) NAMED_UNIT ( * ) SI_UNIT ( .MILLI., .METRE. ) );
#215 = PLANE ( 'NONE',  #240 ) ;
#216 = DIRECTION ( 'NONE',  ( -3.491481338843133355E-15, 9.031770143711729009E-17, -1.000000000000000000 ) ) ;
#217 = CC_DESIGN_PERSON_AND_ORGANIZATION_ASSIGNMENT ( #111, #170, ( #65 ) ) ;
#218 = CYLINDRICAL_SURFACE ( 'NONE', #82, 2.268999999999994799 ) ;
#219 = AXIS2_PLACEMENT_3D ( 'NONE', #125, #71, #64 ) ;
#220 = CARTESIAN_POINT ( 'NONE',  ( -1.705653338539851478E-30, 2.038059892324148414, -4.885185321096410224E-16 ) ) ;
#221 = EDGE_CURVE ( 'NONE', #179, #179, #133, .T. ) ;
#222 = DIRECTION ( 'NONE',  ( 0.0000000000000000000, 0.0000000000000000000, 1.000000000000000000 ) ) ;
#223 =( NAMED_UNIT ( * ) SI_UNIT ( $, .STERADIAN. ) SOLID_ANGLE_UNIT ( ) );
#224 = CARTESIAN_POINT ( 'NONE',  ( 0.0000000000000000000, 0.0000000000000000000, 0.0000000000000000000 ) ) ;
#225 = APPROVAL_PERSON_ORGANIZATION ( #20, #25, #55 ) ;
#226 = PERSON_AND_ORGANIZATION_ROLE ( 'classification_officer' ) ;
#227 = COORDINATED_UNIVERSAL_TIME_OFFSET ( 1, 0, .AHEAD. ) ;
#228 = ADVANCED_FACE ( 'NONE', ( #53, #51 ), #59, .T. ) ;
#229 = EDGE_LOOP ( 'NONE', ( #193 ) ) ;
#230 = DIRECTION ( 'NONE',  ( -3.153425691349006731E-31, -1.000000000000000000, -9.031770143711729009E-17 ) ) ;
#231 = PRODUCT_DEFINITION_SHAPE ( 'NONE', 'NONE',  #65 ) ;
#232 = CARTESIAN_POINT ( 'NONE',  ( 4.722555579303857046E-14, 6.484275361098512252E-15, 13.52593676146820734 ) ) ;
#233 = EDGE_LOOP ( 'NONE', ( #127 ) ) ;
#234 = LOCAL_TIME ( 11, 2, 58.00000000000000000, #187 ) ;
#235 = FACE_OUTER_BOUND ( 'NONE', #160, .T. ) ;
#236 = DIRECTION ( 'NONE',  ( -1.697602419027975067E-30, 1.000000000000000000, -4.778326013598525701E-16 ) ) ;
#237 = ADVANCED_FACE ( 'NONE', ( #54, #128 ), #89, .T. ) ;
#238 = DIRECTION ( 'NONE',  ( 1.673800995705548598E-30, -1.000000000000000000, 4.793956585373432678E-16 ) ) ;
#239 = COORDINATED_UNIVERSAL_TIME_OFFSET ( 1, 0, .AHEAD. ) ;
#240 = AXIS2_PLACEMENT_3D ( 'NONE', #35, #88, #230 ) ;
#241 = EDGE_CURVE ( 'NONE', #143, #143, #144, .T. ) ;
#242 = APPROVAL_DATE_TIME ( #96, #25 ) ;
#243 = ORIENTED_EDGE ( 'NONE', *, *, #241, .F. ) ;
ENDSEC;
END-ISO-10303-21;
