ISO-10303-21;
HEADER;
FILE_DESCRIPTION (( 'STEP AP203' ),
    '1' );
FILE_NAME ('321356.step',
    '2021-11-26T10:02:58',
    ( '' ),
    ( '' ),
    'SwSTEP 2.0',
    'SolidWorks 2019',
    '' );
FILE_SCHEMA (( 'CONFIG_CONTROL_DESIGN' ));
ENDSEC;

DATA;
#1 = DIRECTION ( 'NONE',  ( -3.491481338843133355E-15, -4.789321915676335361E-16, -1.000000000000000000 ) ) ;
#2 = AXIS2_PLACEMENT_3D ( 'NONE', #70, #51, #201 ) ;
#3 = DIRECTION ( 'NONE',  ( -3.491481338843133355E-15, -4.789321915676335361E-16, -1.000000000000000000 ) ) ;
#4 = EDGE_CURVE ( 'NONE', #220, #220, #66, .T. ) ;
#5 = CALENDAR_DATE ( 2021, 26, 11 ) ;
#6 = EDGE_LOOP ( 'NONE', ( #67 ) ) ;
#7 = AXIS2_PLACEMENT_3D ( 'NONE', #162, #35, #177 ) ;
#8 = ADVANCED_FACE ( 'NONE', ( #233 ), #128, .T. ) ;
#9 = EDGE_LOOP ( 'NONE', ( #100 ) ) ;
#10 = DIRECTION ( 'NONE',  ( -1.672182809429637195E-30, 1.000000000000000000, -4.789321915676334374E-16 ) ) ;
#11 = ORIENTED_EDGE ( 'NONE', *, *, #152, .F. ) ;
#12 = DIRECTION ( 'NONE',  ( 0.0000000000000000000, 1.000000000000000000, 0.0000000000000000000 ) ) ;
#13 = CARTESIAN_POINT ( 'NONE',  ( 0.0000000000000000000, 0.0000000000000000000, 0.0000000000000000000 ) ) ;
#14 = ORIENTED_EDGE ( 'NONE', *, *, #152, .T. ) ;
#15 = UNCERTAINTY_MEASURE_WITH_UNIT (LENGTH_MEASURE( 1.000000000000000082E-05 ), #221, 'distance_accuracy_value', 'NONE');
#16 = CARTESIAN_POINT ( 'NONE',  ( 0.0000000000000000000, 0.0000000000000000000, 0.0000000000000000000 ) ) ;
#17 = SECURITY_CLASSIFICATION ( '', '', #172 ) ;
#18 = DIRECTION ( 'NONE',  ( -3.491481338843133355E-15, 9.031770143711729009E-17, -1.000000000000000000 ) ) ;
#19 = CARTESIAN_POINT ( 'NONE',  ( 4.725579290840133919E-14, 2.263999999999998014, 13.53459701550604954 ) ) ;
#20 = APPROVAL_DATE_TIME ( #184, #150 ) ;
#21 = FACE_OUTER_BOUND ( 'NONE', #242, .T. ) ;
#22 = ADVANCED_FACE ( 'NONE', ( #63, #145 ), #116, .T. ) ;
#23 = VERTEX_POINT ( 'NONE', #205 ) ;
#24 = PERSON_AND_ORGANIZATION ( #187, #171 ) ;
#25 = PERSON_AND_ORGANIZATION ( #187, #171 ) ;
#26 = CC_DESIGN_DATE_AND_TIME_ASSIGNMENT ( #42, #132, ( #64 ) ) ;
#27 = APPROVAL_PERSON_ORGANIZATION ( #114, #156, #58 ) ;
#28 = PERSON_AND_ORGANIZATION ( #187, #171 ) ;
#29 = EDGE_LOOP ( 'NONE', ( #14 ) ) ;
#30 = PRODUCT_DEFINITION_SHAPE ( 'NONE', 'NONE',  #64 ) ;
#31 = LOCAL_TIME ( 11, 2, 58.00000000000000000, #93 ) ;
#32 = CARTESIAN_POINT ( 'NONE',  ( 4.725579290840133919E-14, 6.482154210621063741E-15, 13.53459701550604954 ) ) ;
#33 = PERSON_AND_ORGANIZATION_ROLE ( 'design_owner' ) ;
#34 = ORIENTED_EDGE ( 'NONE', *, *, #234, .T. ) ;
#35 = DIRECTION ( 'NONE',  ( -3.491481338843133355E-15, -4.789321915676335361E-16, -1.000000000000000000 ) ) ;
#36 = EDGE_CURVE ( 'NONE', #23, #23, #190, .T. ) ;
#37 = EDGE_LOOP ( 'NONE', ( #119 ) ) ;
#38 = DIRECTION ( 'NONE',  ( -3.491481338843133355E-15, -4.789321915676335361E-16, -1.000000000000000000 ) ) ;
#39 = APPROVAL_STATUS ( 'not_yet_approved' ) ;
#40 = DATE_AND_TIME ( #5, #158 ) ;
#41 = CARTESIAN_POINT ( 'NONE',  ( 4.885231259955590439E-14, 1.999999999999990452, 13.99185842870425134 ) ) ;
#42 = DATE_AND_TIME ( #167, #31 ) ;
#43 = AXIS2_PLACEMENT_3D ( 'NONE', #202, #38, #133 ) ;
#44 = ORIENTED_EDGE ( 'NONE', *, *, #234, .F. ) ;
#45 = CARTESIAN_POINT ( 'NONE',  ( 4.725579290840133919E-14, 2.263999999999998014, 13.53459701550604954 ) ) ;
#46 = DIRECTION ( 'NONE',  ( -3.491481338843133355E-15, -4.789321915676335361E-16, -1.000000000000000000 ) ) ;
#47 = APPROVAL_ROLE ( '' ) ;
#48 = DIRECTION ( 'NONE',  ( 1.672182809429637195E-30, -1.000000000000000000, 4.789321915676334374E-16 ) ) ;
#49 = CARTESIAN_POINT ( 'NONE',  ( 2.793185071074506684E-13, -7.225416114969383207E-15, 80.00000000000000000 ) ) ;
#50 = PERSON_AND_ORGANIZATION_ROLE ( 'classification_officer' ) ;
#51 = DIRECTION ( 'NONE',  ( -3.491481338843133355E-15, 9.031770143711729009E-17, -1.000000000000000000 ) ) ;
#52 = APPROVAL_PERSON_ORGANIZATION ( #199, #191, #47 ) ;
#53 = FACE_BOUND ( 'NONE', #227, .T. ) ;
#54 = APPROVAL_STATUS ( 'not_yet_approved' ) ;
#55 = PRODUCT ( '321356', '321356', '', ( #123 ) ) ;
#56 = MANIFOLD_SOLID_BREP ( 'Corps-Déplacer/Copier1[2]', #180 ) ;
#57 = PERSON_AND_ORGANIZATION_ROLE ( 'creator' ) ;
#58 = APPROVAL_ROLE ( '' ) ;
#59 = ADVANCED_FACE ( 'NONE', ( #122, #214 ), #105, .T. ) ;
#60 = DATE_TIME_ROLE ( 'classification_date' ) ;
#61 = CC_DESIGN_PERSON_AND_ORGANIZATION_ASSIGNMENT ( #169, #76, ( #178 ) ) ;
#62 = ORIENTED_EDGE ( 'NONE', *, *, #4, .F. ) ;
#63 = FACE_OUTER_BOUND ( 'NONE', #192, .T. ) ;
#64 = PRODUCT_DEFINITION ( 'UNKNOWN', '', #178, #185 ) ;
#65 = DIRECTION ( 'NONE',  ( -3.491481338843133355E-15, 9.031770143711729009E-17, -1.000000000000000000 ) ) ;
#66 = CIRCLE ( 'NONE', #7, 2.263999999999998458 ) ;
#67 = ORIENTED_EDGE ( 'NONE', *, *, #226, .F. ) ;
#68 = EDGE_LOOP ( 'NONE', ( #34 ) ) ;
#69 = ORIENTED_EDGE ( 'NONE', *, *, #82, .T. ) ;
#70 = CARTESIAN_POINT ( 'NONE',  ( 4.725579290840133919E-14, -1.222413692318174073E-15, 13.53459701550604954 ) ) ;
#71 = VERTEX_POINT ( 'NONE', #19 ) ;
#72 = CIRCLE ( 'NONE', #208, 2.263999999999999346 ) ;
#73 = CIRCLE ( 'NONE', #207, 1.999999999999991784 ) ;
#74 = CYLINDRICAL_SURFACE ( 'NONE', #127, 2.263999999999995349 ) ;
#75 = EDGE_CURVE ( 'NONE', #203, #203, #225, .T. ) ;
#76 = PERSON_AND_ORGANIZATION_ROLE ( 'creator' ) ;
#77 = LOCAL_TIME ( 11, 2, 58.00000000000000000, #113 ) ;
#78 = CARTESIAN_POINT ( 'NONE',  ( 4.885231259955590439E-14, -1.263712492114123682E-15, 13.99185842870425134 ) ) ;
#79 = LOCAL_TIME ( 11, 2, 58.00000000000000000, #196 ) ;
#80 =( NAMED_UNIT ( * ) SI_UNIT ( $, .STERADIAN. ) SOLID_ANGLE_UNIT ( ) );
#81 = DIRECTION ( 'NONE',  ( -3.491481338843133355E-15, 9.031770143711729009E-17, -1.000000000000000000 ) ) ;
#82 = EDGE_CURVE ( 'NONE', #110, #110, #72, .T. ) ;
#83 = DIRECTION ( 'NONE',  ( 3.491481338843133355E-15, 4.789321915676335361E-16, 1.000000000000000000 ) ) ;
#84 = ORIENTED_EDGE ( 'NONE', *, *, #75, .T. ) ;
#85 = DIRECTION ( 'NONE',  ( -3.491481338843133355E-15, 9.031770143711729009E-17, -1.000000000000000000 ) ) ;
#86 = DIRECTION ( 'NONE',  ( 0.0000000000000000000, 1.000000000000000000, 0.0000000000000000000 ) ) ;
#87 = CARTESIAN_POINT ( 'NONE',  ( 2.793185071074506684E-13, 1.599999999999987876, 80.00000000000000000 ) ) ;
#88 = APPLICATION_PROTOCOL_DEFINITION ( 'international standard', 'config_control_design', 1994, #151 ) ;
#89 = CC_DESIGN_DATE_AND_TIME_ASSIGNMENT ( #135, #60, ( #17 ) ) ;
#90 = DIRECTION ( 'NONE',  ( -1.672182809429636845E-30, 1.000000000000000000, -4.789321915676335361E-16 ) ) ;
#91 = PERSON_AND_ORGANIZATION ( #187, #171 ) ;
#92 = CALENDAR_DATE ( 2021, 26, 11 ) ;
#93 = COORDINATED_UNIVERSAL_TIME_OFFSET ( 1, 0, .AHEAD. ) ;
#94 = SHAPE_DEFINITION_REPRESENTATION ( #30, #143 ) ;
#95 = CC_DESIGN_APPROVAL ( #150, ( #178 ) ) ;
#96 = APPROVAL_DATE_TIME ( #40, #156 ) ;
#97 = APPLICATION_CONTEXT ( 'configuration controlled 3d designs of mechanical parts and assemblies' ) ;
#98 = CIRCLE ( 'NONE', #236, 2.263999999999991797 ) ;
#99 = PRODUCT_RELATED_PRODUCT_CATEGORY ( 'detail', '', ( #55 ) ) ;
#100 = ORIENTED_EDGE ( 'NONE', *, *, #75, .F. ) ;
#101 = AXIS2_PLACEMENT_3D ( 'NONE', #45, #65, #193 ) ;
#102 = CALENDAR_DATE ( 2021, 26, 11 ) ;
#103 = CARTESIAN_POINT ( 'NONE',  ( 3.399647802485311037E-30, 4.663352355598918934E-31, 9.736978298190615593E-16 ) ) ;
#104 =( GEOMETRIC_REPRESENTATION_CONTEXT ( 3 ) GLOBAL_UNCERTAINTY_ASSIGNED_CONTEXT ( ( #15 ) ) GLOBAL_UNIT_ASSIGNED_CONTEXT ( ( #221, #112, #80 ) ) REPRESENTATION_CONTEXT ( 'NONE', 'WORKASPACE' ) );
#105 = CONICAL_SURFACE ( 'NONE', #2, 2.263999999999999346, 0.5235987755982942637 ) ;
#106 = DIRECTION ( 'NONE',  ( 0.0000000000000000000, 1.000000000000000000, 0.0000000000000000000 ) ) ;
#107 = DIRECTION ( 'NONE',  ( -3.491481338843133355E-15, 9.031770143711729009E-17, -1.000000000000000000 ) ) ;
#108 = DIRECTION ( 'NONE',  ( 0.0000000000000000000, 1.000000000000000000, 0.0000000000000000000 ) ) ;
#109 = CLOSED_SHELL ( 'NONE', ( #8, #209, #163, #59, #118 ) ) ;
#110 = VERTEX_POINT ( 'NONE', #183 ) ;
#111 = APPROVAL_ROLE ( '' ) ;
#112 =( NAMED_UNIT ( * ) PLANE_ANGLE_UNIT ( ) SI_UNIT ( $, .RADIAN. ) );
#113 = COORDINATED_UNIVERSAL_TIME_OFFSET ( 1, 0, .AHEAD. ) ;
#114 = PERSON_AND_ORGANIZATION ( #187, #171 ) ;
#115 = COORDINATED_UNIVERSAL_TIME_OFFSET ( 1, 0, .AHEAD. ) ;
#116 = CONICAL_SURFACE ( 'NONE', #137, 2.033059892324148965, 0.5235987755982979275 ) ;
#117 = ORIENTED_EDGE ( 'NONE', *, *, #4, .T. ) ;
#118 = ADVANCED_FACE ( 'NONE', ( #195 ), #155, .T. ) ;
#119 = ORIENTED_EDGE ( 'NONE', *, *, #82, .F. ) ;
#120 = EDGE_LOOP ( 'NONE', ( #11 ) ) ;
#121 = FACE_OUTER_BOUND ( 'NONE', #175, .T. ) ;
#122 = FACE_BOUND ( 'NONE', #173, .T. ) ;
#123 = MECHANICAL_CONTEXT ( 'NONE', #97, 'mechanical' ) ;
#124 = FACE_OUTER_BOUND ( 'NONE', #6, .T. ) ;
#125 = COORDINATED_UNIVERSAL_TIME_OFFSET ( 1, 0, .AHEAD. ) ;
#126 = DIRECTION ( 'NONE',  ( 3.153425691349006731E-31, 1.000000000000000000, 9.031770143711729009E-17 ) ) ;
#127 = AXIS2_PLACEMENT_3D ( 'NONE', #16, #3, #90 ) ;
#128 = PLANE ( 'NONE',  #160 ) ;
#129 = DIRECTION ( 'NONE',  ( 1.000000000000000000, 0.0000000000000000000, 0.0000000000000000000 ) ) ;
#130 = LOCAL_TIME ( 11, 2, 58.00000000000000000, #125 ) ;
#131 = DIRECTION ( 'NONE',  ( 0.0000000000000000000, 1.000000000000000000, 0.0000000000000000000 ) ) ;
#132 = DATE_TIME_ROLE ( 'creation_date' ) ;
#133 = DIRECTION ( 'NONE',  ( -1.672182809429637195E-30, 1.000000000000000000, -4.789321915676335361E-16 ) ) ;
#134 = MANIFOLD_SOLID_BREP ( 'Corps-Déplacer/Copier1[1]', #109 ) ;
#135 = DATE_AND_TIME ( #164, #130 ) ;
#136 = CIRCLE ( 'NONE', #166, 1.999999999999995337 ) ;
#137 = AXIS2_PLACEMENT_3D ( 'NONE', #103, #213, #48 ) ;
#138 = CONICAL_SURFACE ( 'NONE', #146, 1.999999999999995337, 0.7853981633974516097 ) ;
#139 = ADVANCED_FACE ( 'NONE', ( #121 ), #142, .T. ) ;
#140 = DIRECTION ( 'NONE',  ( -3.153425691349006731E-31, -1.000000000000000000, -9.031770143711729009E-17 ) ) ;
#141 = DIRECTION ( 'NONE',  ( 1.672182809429637195E-30, -1.000000000000000000, 4.789321915676335361E-16 ) ) ;
#142 = PLANE ( 'NONE',  #239 ) ;
#143 = ADVANCED_BREP_SHAPE_REPRESENTATION ( '321356', ( #134, #56, #216 ), #104 ) ;
#144 = PERSON_AND_ORGANIZATION ( #187, #171 ) ;
#145 = FACE_BOUND ( 'NONE', #230, .T. ) ;
#146 = AXIS2_PLACEMENT_3D ( 'NONE', #240, #107, #108 ) ;
#147 = FACE_OUTER_BOUND ( 'NONE', #120, .T. ) ;
#148 = CC_DESIGN_APPROVAL ( #156, ( #17 ) ) ;
#149 = CARTESIAN_POINT ( 'NONE',  ( 1.396592535537252948E-15, 2.263999999999998458, 0.3999999999999999112 ) ) ;
#150 = APPROVAL ( #39, 'UNSPECIFIED' ) ;
#151 = APPLICATION_CONTEXT ( 'configuration controlled 3d designs of mechanical parts and assemblies' ) ;
#152 = EDGE_CURVE ( 'NONE', #186, #186, #136, .T. ) ;
#153 = CC_DESIGN_APPROVAL ( #191, ( #64 ) ) ;
#154 = EDGE_LOOP ( 'NONE', ( #161 ) ) ;
#155 = PLANE ( 'NONE',  #101 ) ;
#156 = APPROVAL ( #54, 'UNSPECIFIED' ) ;
#157 = APPROVAL_STATUS ( 'not_yet_approved' ) ;
#158 = LOCAL_TIME ( 11, 2, 58.00000000000000000, #115 ) ;
#159 = FACE_OUTER_BOUND ( 'NONE', #29, .T. ) ;
#160 = AXIS2_PLACEMENT_3D ( 'NONE', #235, #229, #140 ) ;
#161 = ORIENTED_EDGE ( 'NONE', *, *, #36, .T. ) ;
#162 = CARTESIAN_POINT ( 'NONE',  ( 1.396592535537256695E-15, 1.915728766270538927E-16, 0.4000000000000010214 ) ) ;
#163 = ADVANCED_FACE ( 'NONE', ( #159, #124 ), #179, .T. ) ;
#164 = CALENDAR_DATE ( 2021, 26, 11 ) ;
#165 = APPLICATION_PROTOCOL_DEFINITION ( 'international standard', 'config_control_design', 1994, #97 ) ;
#166 = AXIS2_PLACEMENT_3D ( 'NONE', #181, #212, #12 ) ;
#167 = CALENDAR_DATE ( 2021, 26, 11 ) ;
#168 = PLANE ( 'NONE',  #43 ) ;
#169 = PERSON_AND_ORGANIZATION ( #187, #171 ) ;
#170 = CARTESIAN_POINT ( 'NONE',  ( 4.725579290840134550E-14, 6.482154210621065319E-15, 13.53459701550605132 ) ) ;
#171 = ORGANIZATION ( 'UNSPECIFIED', 'UNSPECIFIED', '' ) ;
#172 = SECURITY_CLASSIFICATION_LEVEL ( 'unclassified' ) ;
#173 = EDGE_LOOP ( 'NONE', ( #198 ) ) ;
#174 = CARTESIAN_POINT ( 'NONE',  ( 4.725579290840133919E-14, -1.222413692318174073E-15, 13.53459701550604954 ) ) ;
#175 = EDGE_LOOP ( 'NONE', ( #44 ) ) ;
#176 = CC_DESIGN_PERSON_AND_ORGANIZATION_ASSIGNMENT ( #25, #57, ( #64 ) ) ;
#177 = DIRECTION ( 'NONE',  ( -1.701351540978124818E-30, 1.000000000000000000, -4.788878853734563803E-16 ) ) ;
#178 = PRODUCT_DEFINITION_FORMATION_WITH_SPECIFIED_SOURCE ( 'ANY', '', #55, .NOT_KNOWN. ) ;
#179 = CYLINDRICAL_SURFACE ( 'NONE', #241, 1.999999999999993561 ) ;
#180 = CLOSED_SHELL ( 'NONE', ( #139, #238, #22, #200 ) ) ;
#181 = CARTESIAN_POINT ( 'NONE',  ( 2.779219145719134403E-13, -7.189289034394536528E-15, 79.60000000000000853 ) ) ;
#182 = DIRECTION ( 'NONE',  ( -2.722162465565007556E-30, 1.000000000000000000, -7.662206165975324173E-16 ) ) ;
#183 = CARTESIAN_POINT ( 'NONE',  ( 4.725579290840133919E-14, 2.263999999999998014, 13.53459701550604954 ) ) ;
#184 = DATE_AND_TIME ( #92, #77 ) ;
#185 = DESIGN_CONTEXT ( 'detailed design', #151, 'design' ) ;
#186 = VERTEX_POINT ( 'NONE', #237 ) ;
#187 = PERSON ( 'UNSPECIFIED', 'UNSPECIFIED', 'UNSPECIFIED', ('UNSPECIFIED'), ('UNSPECIFIED'), ('UNSPECIFIED') ) ;
#188 = CC_DESIGN_PERSON_AND_ORGANIZATION_ASSIGNMENT ( #144, #33, ( #55 ) ) ;
#189 = CC_DESIGN_SECURITY_CLASSIFICATION ( #17, ( #178 ) ) ;
#190 = CIRCLE ( 'NONE', #231, 2.033059892324148965 ) ;
#191 = APPROVAL ( #157, 'UNSPECIFIED' ) ;
#192 = EDGE_LOOP ( 'NONE', ( #117 ) ) ;
#193 = DIRECTION ( 'NONE',  ( 3.153425691349006731E-31, 1.000000000000000000, 9.031770143711729009E-17 ) ) ;
#194 = CARTESIAN_POINT ( 'NONE',  ( 0.0000000000000000000, 0.0000000000000000000, 0.0000000000000000000 ) ) ;
#195 = FACE_OUTER_BOUND ( 'NONE', #228, .T. ) ;
#196 = COORDINATED_UNIVERSAL_TIME_OFFSET ( 1, 0, .AHEAD. ) ;
#197 = ORIENTED_EDGE ( 'NONE', *, *, #36, .F. ) ;
#198 = ORIENTED_EDGE ( 'NONE', *, *, #226, .T. ) ;
#199 = PERSON_AND_ORGANIZATION ( #187, #171 ) ;
#200 = ADVANCED_FACE ( 'NONE', ( #224 ), #168, .T. ) ;
#201 = DIRECTION ( 'NONE',  ( 0.0000000000000000000, 1.000000000000000000, 0.0000000000000000000 ) ) ;
#202 = CARTESIAN_POINT ( 'NONE',  ( -1.699823901242655519E-30, 2.033059892324148965, -4.868489149095307796E-16 ) ) ;
#203 = VERTEX_POINT ( 'NONE', #87 ) ;
#204 = DATE_AND_TIME ( #102, #79 ) ;
#205 = CARTESIAN_POINT ( 'NONE',  ( 0.0000000000000000000, 2.033059892324148965, 0.0000000000000000000 ) ) ;
#206 = APPROVAL_DATE_TIME ( #204, #191 ) ;
#207 = AXIS2_PLACEMENT_3D ( 'NONE', #78, #18, #131 ) ;
#208 = AXIS2_PLACEMENT_3D ( 'NONE', #174, #81, #106 ) ;
#209 = ADVANCED_FACE ( 'NONE', ( #53, #147 ), #138, .T. ) ;
#210 = AXIS2_PLACEMENT_3D ( 'NONE', #49, #211, #86 ) ;
#211 = DIRECTION ( 'NONE',  ( -3.491481338843133355E-15, 9.031770143711729009E-17, -1.000000000000000000 ) ) ;
#212 = DIRECTION ( 'NONE',  ( -3.491481338843133355E-15, 9.031770143711729009E-17, -1.000000000000000000 ) ) ;
#213 = DIRECTION ( 'NONE',  ( 3.491481338843133355E-15, 4.789321915676335361E-16, 1.000000000000000000 ) ) ;
#214 = FACE_OUTER_BOUND ( 'NONE', #37, .T. ) ;
#215 = CC_DESIGN_PERSON_AND_ORGANIZATION_ASSIGNMENT ( #28, #50, ( #17 ) ) ;
#216 = AXIS2_PLACEMENT_3D ( 'NONE', #194, #232, #129 ) ;
#217 = CARTESIAN_POINT ( 'NONE',  ( 3.399647802485311037E-30, 4.663352355598918934E-31, 9.736978298190615593E-16 ) ) ;
#218 = PERSON_AND_ORGANIZATION_ROLE ( 'design_supplier' ) ;
#219 = CC_DESIGN_PERSON_AND_ORGANIZATION_ASSIGNMENT ( #91, #218, ( #178 ) ) ;
#220 = VERTEX_POINT ( 'NONE', #149 ) ;
#221 =( LENGTH_UNIT ( ) NAMED_UNIT ( * ) SI_UNIT ( .MILLI., .METRE. ) );
#222 = APPROVAL_PERSON_ORGANIZATION ( #24, #150, #111 ) ;
#223 = VERTEX_POINT ( 'NONE', #41 ) ;
#224 = FACE_OUTER_BOUND ( 'NONE', #154, .T. ) ;
#225 = CIRCLE ( 'NONE', #210, 1.599999999999994982 ) ;
#226 = EDGE_CURVE ( 'NONE', #223, #223, #73, .T. ) ;
#227 = EDGE_LOOP ( 'NONE', ( #84 ) ) ;
#228 = EDGE_LOOP ( 'NONE', ( #69 ) ) ;
#229 = DIRECTION ( 'NONE',  ( 3.491481338843133355E-15, -9.031770143711729009E-17, 1.000000000000000000 ) ) ;
#230 = EDGE_LOOP ( 'NONE', ( #197 ) ) ;
#231 = AXIS2_PLACEMENT_3D ( 'NONE', #217, #46, #10 ) ;
#232 = DIRECTION ( 'NONE',  ( 0.0000000000000000000, 0.0000000000000000000, 1.000000000000000000 ) ) ;
#233 = FACE_OUTER_BOUND ( 'NONE', #9, .T. ) ;
#234 = EDGE_CURVE ( 'NONE', #71, #71, #98, .T. ) ;
#235 = CARTESIAN_POINT ( 'NONE',  ( 2.793185071074506684E-13, -7.225416114969383207E-15, 80.00000000000000000 ) ) ;
#236 = AXIS2_PLACEMENT_3D ( 'NONE', #170, #1, #182 ) ;
#237 = CARTESIAN_POINT ( 'NONE',  ( 2.779219145719134403E-13, 1.999999999999988010, 79.60000000000000853 ) ) ;
#238 = ADVANCED_FACE ( 'NONE', ( #243, #21 ), #74, .T. ) ;
#239 = AXIS2_PLACEMENT_3D ( 'NONE', #32, #83, #141 ) ;
#240 = CARTESIAN_POINT ( 'NONE',  ( 2.779219145719134403E-13, -7.189289034394536528E-15, 79.60000000000000853 ) ) ;
#241 = AXIS2_PLACEMENT_3D ( 'NONE', #13, #85, #126 ) ;
#242 = EDGE_LOOP ( 'NONE', ( #62 ) ) ;
#243 = FACE_OUTER_BOUND ( 'NONE', #68, .T. ) ;
ENDSEC;
END-ISO-10303-21;
