ISO-10303-21;
HEADER;
FILE_DESCRIPTION (( 'STEP AP203' ),
    '1' );
FILE_NAME ('321355.step',
    '2021-11-26T10:02:57',
    ( '' ),
    ( '' ),
    'SwSTEP 2.0',
    'SolidWorks 2019',
    '' );
FILE_SCHEMA (( 'CONFIG_CONTROL_DESIGN' ));
ENDSEC;

DATA;
#1 = EDGE_CURVE ( 'NONE', #13, #13, #101, .T. ) ;
#2 = CLOSED_SHELL ( 'NONE', ( #178, #7, #154, #217, #49 ) ) ;
#3 = CC_DESIGN_SECURITY_CLASSIFICATION ( #152, ( #19 ) ) ;
#4 = APPROVAL_DATE_TIME ( #155, #26 ) ;
#5 = CIRCLE ( 'NONE', #242, 2.258999999999991459 ) ;
#6 = DIRECTION ( 'NONE',  ( 3.153425691349006731E-31, 1.000000000000000000, 9.031770143711729009E-17 ) ) ;
#7 = ADVANCED_FACE ( 'NONE', ( #127, #92 ), #113, .T. ) ;
#8 = CC_DESIGN_PERSON_AND_ORGANIZATION_ASSIGNMENT ( #77, #218, ( #19 ) ) ;
#9 = DIRECTION ( 'NONE',  ( 0.0000000000000000000, 1.000000000000000000, 0.0000000000000000000 ) ) ;
#10 = DIRECTION ( 'NONE',  ( 3.491481338843133355E-15, 4.784693173270753661E-16, 1.000000000000000000 ) ) ;
#11 = LOCAL_TIME ( 11, 2, 57.00000000000000000, #81 ) ;
#12 = PRODUCT_DEFINITION_SHAPE ( 'NONE', 'NONE',  #173 ) ;
#13 = VERTEX_POINT ( 'NONE', #89 ) ;
#14 = ORIENTED_EDGE ( 'NONE', *, *, #135, .T. ) ;
#15 = APPLICATION_CONTEXT ( 'configuration controlled 3d designs of mechanical parts and assemblies' ) ;
#16 = FACE_OUTER_BOUND ( 'NONE', #43, .T. ) ;
#17 = VERTEX_POINT ( 'NONE', #98 ) ;
#18 = EDGE_LOOP ( 'NONE', ( #129 ) ) ;
#19 = PRODUCT_DEFINITION_FORMATION_WITH_SPECIFIED_SOURCE ( 'ANY', '', #162, .NOT_KNOWN. ) ;
#20 = APPROVAL_STATUS ( 'not_yet_approved' ) ;
#21 = EDGE_LOOP ( 'NONE', ( #169 ) ) ;
#22 = PRODUCT_RELATED_PRODUCT_CATEGORY ( 'detail', '', ( #162 ) ) ;
#23 = CARTESIAN_POINT ( 'NONE',  ( 4.885231259955590439E-14, 1.999999999999990452, 13.99185842870425134 ) ) ;
#24 = EDGE_LOOP ( 'NONE', ( #64 ) ) ;
#25 = DATE_AND_TIME ( #240, #29 ) ;
#26 = APPROVAL ( #100, 'UNSPECIFIED' ) ;
#27 = CALENDAR_DATE ( 2021, 26, 11 ) ;
#28 = AXIS2_PLACEMENT_3D ( 'NONE', #199, #32, #105 ) ;
#29 = LOCAL_TIME ( 11, 2, 57.00000000000000000, #44 ) ;
#30 = DIRECTION ( 'NONE',  ( -3.153425691349006731E-31, -1.000000000000000000, -9.031770143711729009E-17 ) ) ;
#31 = DIRECTION ( 'NONE',  ( 3.491481338843133355E-15, -9.031770143711729009E-17, 1.000000000000000000 ) ) ;
#32 = DIRECTION ( 'NONE',  ( -3.491481338843133355E-15, 9.031770143711729009E-17, -1.000000000000000000 ) ) ;
#33 = DIRECTION ( 'NONE',  ( 0.0000000000000000000, 1.000000000000000000, 0.0000000000000000000 ) ) ;
#34 = CC_DESIGN_APPROVAL ( #26, ( #152 ) ) ;
#35 = PLANE ( 'NONE',  #239 ) ;
#36 = EDGE_LOOP ( 'NONE', ( #80 ) ) ;
#37 =( NAMED_UNIT ( * ) SI_UNIT ( $, .STERADIAN. ) SOLID_ANGLE_UNIT ( ) );
#38 =( LENGTH_UNIT ( ) NAMED_UNIT ( * ) SI_UNIT ( .MILLI., .METRE. ) );
#39 = ADVANCED_FACE ( 'NONE', ( #120, #233 ), #179, .T. ) ;
#40 = ORIENTED_EDGE ( 'NONE', *, *, #193, .F. ) ;
#41 = UNCERTAINTY_MEASURE_WITH_UNIT (LENGTH_MEASURE( 1.000000000000000082E-05 ), #38, 'distance_accuracy_value', 'NONE');
#42 = CALENDAR_DATE ( 2021, 26, 11 ) ;
#43 = EDGE_LOOP ( 'NONE', ( #14 ) ) ;
#44 = COORDINATED_UNIVERSAL_TIME_OFFSET ( 1, 0, .AHEAD. ) ;
#45 = VERTEX_POINT ( 'NONE', #66 ) ;
#46 = ORGANIZATION ( 'UNSPECIFIED', 'UNSPECIFIED', '' ) ;
#47 = COORDINATED_UNIVERSAL_TIME_OFFSET ( 1, 0, .AHEAD. ) ;
#48 = DATE_AND_TIME ( #27, #138 ) ;
#49 = ADVANCED_FACE ( 'NONE', ( #214 ), #52, .T. ) ;
#50 = CLOSED_SHELL ( 'NONE', ( #63, #71, #39, #167 ) ) ;
#51 = PERSON_AND_ORGANIZATION ( #68, #46 ) ;
#52 = PLANE ( 'NONE',  #171 ) ;
#53 = CC_DESIGN_APPROVAL ( #69, ( #19 ) ) ;
#54 = DIRECTION ( 'NONE',  ( 0.0000000000000000000, 1.000000000000000000, 0.0000000000000000000 ) ) ;
#55 = LOCAL_TIME ( 11, 2, 57.00000000000000000, #47 ) ;
#56 = DIRECTION ( 'NONE',  ( 0.0000000000000000000, 1.000000000000000000, 0.0000000000000000000 ) ) ;
#57 = DIRECTION ( 'NONE',  ( 0.0000000000000000000, 1.000000000000000000, 0.0000000000000000000 ) ) ;
#58 = CARTESIAN_POINT ( 'NONE',  ( 3.388009306829244712E-30, 4.642896074230451717E-31, 9.703644321787573456E-16 ) ) ;
#59 = CIRCLE ( 'NONE', #141, 1.599999999999994982 ) ;
#60 = ORIENTED_EDGE ( 'NONE', *, *, #135, .F. ) ;
#61 = SECURITY_CLASSIFICATION_LEVEL ( 'unclassified' ) ;
#62 = CARTESIAN_POINT ( 'NONE',  ( 1.396592535537256695E-15, 1.913877269308306247E-16, 0.4000000000000010214 ) ) ;
#63 = ADVANCED_FACE ( 'NONE', ( #109 ), #176, .T. ) ;
#64 = ORIENTED_EDGE ( 'NONE', *, *, #232, .F. ) ;
#65 = AXIS2_PLACEMENT_3D ( 'NONE', #94, #177, #57 ) ;
#66 = CARTESIAN_POINT ( 'NONE',  ( 0.0000000000000000000, 2.028059892324148628, 0.0000000000000000000 ) ) ;
#67 = PERSON_AND_ORGANIZATION ( #68, #46 ) ;
#68 = PERSON ( 'UNSPECIFIED', 'UNSPECIFIED', 'UNSPECIFIED', ('UNSPECIFIED'), ('UNSPECIFIED'), ('UNSPECIFIED') ) ;
#69 = APPROVAL ( #146, 'UNSPECIFIED' ) ;
#70 = AXIS2_PLACEMENT_3D ( 'NONE', #103, #126, #33 ) ;
#71 = ADVANCED_FACE ( 'NONE', ( #16, #163 ), #156, .T. ) ;
#72 = PLANE ( 'NONE',  #226 ) ;
#73 = DIRECTION ( 'NONE',  ( -1.670566692656497171E-30, 1.000000000000000000, -4.784693173270753661E-16 ) ) ;
#74 = DIRECTION ( 'NONE',  ( -2.728187614891181058E-30, 1.000000000000000000, -7.679165453637953285E-16 ) ) ;
#75 = DIRECTION ( 'NONE',  ( 3.491481338843133355E-15, 4.784693173270753661E-16, 1.000000000000000000 ) ) ;
#76 = CARTESIAN_POINT ( 'NONE',  ( 3.388009306829244712E-30, 4.642896074230451717E-31, 9.703644321787573456E-16 ) ) ;
#77 = PERSON_AND_ORGANIZATION ( #68, #46 ) ;
#78 = APPROVAL ( #20, 'UNSPECIFIED' ) ;
#79 =( NAMED_UNIT ( * ) PLANE_ANGLE_UNIT ( ) SI_UNIT ( $, .RADIAN. ) );
#80 = ORIENTED_EDGE ( 'NONE', *, *, #212, .F. ) ;
#81 = COORDINATED_UNIVERSAL_TIME_OFFSET ( 1, 0, .AHEAD. ) ;
#82 = MANIFOLD_SOLID_BREP ( 'Corps-Déplacer/Copier1[1]', #2 ) ;
#83 = APPROVAL_ROLE ( '' ) ;
#84 = CIRCLE ( 'NONE', #28, 2.258999999999999453 ) ;
#85 = DIRECTION ( 'NONE',  ( -3.491481338843133355E-15, 9.031770143711729009E-17, -1.000000000000000000 ) ) ;
#86 = CARTESIAN_POINT ( 'NONE',  ( 4.728603002376410792E-14, 6.480033060143616808E-15, 13.54325726954389175 ) ) ;
#87 = AXIS2_PLACEMENT_3D ( 'NONE', #76, #10, #102 ) ;
#88 = CARTESIAN_POINT ( 'NONE',  ( -1.694004653414622356E-30, 2.028059892324148628, -4.851822160893786728E-16 ) ) ;
#89 = CARTESIAN_POINT ( 'NONE',  ( 1.396592535537252948E-15, 2.258999999999998565, 0.3999999999999999112 ) ) ;
#90 = ORIENTED_EDGE ( 'NONE', *, *, #172, .F. ) ;
#91 = APPROVAL_DATE_TIME ( #97, #69 ) ;
#92 = FACE_OUTER_BOUND ( 'NONE', #216, .T. ) ;
#93 = CIRCLE ( 'NONE', #145, 2.028059892324148628 ) ;
#94 = CARTESIAN_POINT ( 'NONE',  ( 2.779219145719134403E-13, -7.189289034394536528E-15, 79.60000000000000853 ) ) ;
#95 = APPLICATION_PROTOCOL_DEFINITION ( 'international standard', 'config_control_design', 1994, #15 ) ;
#96 = EDGE_LOOP ( 'NONE', ( #223 ) ) ;
#97 = DATE_AND_TIME ( #42, #11 ) ;
#98 = CARTESIAN_POINT ( 'NONE',  ( 2.779219145719134403E-13, 1.999999999999988010, 79.60000000000000853 ) ) ;
#99 = PERSON_AND_ORGANIZATION_ROLE ( 'classification_officer' ) ;
#100 = APPROVAL_STATUS ( 'not_yet_approved' ) ;
#101 = CIRCLE ( 'NONE', #204, 2.258999999999998565 ) ;
#102 = DIRECTION ( 'NONE',  ( 1.670566692656497171E-30, -1.000000000000000000, 4.784693173270753661E-16 ) ) ;
#103 = CARTESIAN_POINT ( 'NONE',  ( 2.779219145719134403E-13, -7.189289034394536528E-15, 79.60000000000000853 ) ) ;
#104 = CC_DESIGN_PERSON_AND_ORGANIZATION_ASSIGNMENT ( #207, #112, ( #162 ) ) ;
#105 = DIRECTION ( 'NONE',  ( 0.0000000000000000000, 1.000000000000000000, 0.0000000000000000000 ) ) ;
#106 = CIRCLE ( 'NONE', #70, 1.999999999999995337 ) ;
#107 = CARTESIAN_POINT ( 'NONE',  ( 4.728603002376411424E-14, -1.223195866556733764E-15, 13.54325726954389353 ) ) ;
#108 = CC_DESIGN_DATE_AND_TIME_ASSIGNMENT ( #48, #118, ( #152 ) ) ;
#109 = FACE_OUTER_BOUND ( 'NONE', #181, .T. ) ;
#110 = EDGE_LOOP ( 'NONE', ( #165 ) ) ;
#111 = COORDINATED_UNIVERSAL_TIME_OFFSET ( 1, 0, .AHEAD. ) ;
#112 = PERSON_AND_ORGANIZATION_ROLE ( 'design_owner' ) ;
#113 = CONICAL_SURFACE ( 'NONE', #65, 1.999999999999995337, 0.7853981633974516097 ) ;
#114 = CALENDAR_DATE ( 2021, 26, 11 ) ;
#115 = APPROVAL_ROLE ( '' ) ;
#116 =( GEOMETRIC_REPRESENTATION_CONTEXT ( 3 ) GLOBAL_UNCERTAINTY_ASSIGNED_CONTEXT ( ( #41 ) ) GLOBAL_UNIT_ASSIGNED_CONTEXT ( ( #38, #79, #37 ) ) REPRESENTATION_CONTEXT ( 'NONE', 'WORKASPACE' ) );
#117 = CALENDAR_DATE ( 2021, 26, 11 ) ;
#118 = DATE_TIME_ROLE ( 'classification_date' ) ;
#119 = APPROVAL_PERSON_ORGANIZATION ( #205, #69, #115 ) ;
#120 = FACE_OUTER_BOUND ( 'NONE', #110, .T. ) ;
#121 = AXIS2_PLACEMENT_3D ( 'NONE', #184, #170, #134 ) ;
#122 = APPROVAL_PERSON_ORGANIZATION ( #51, #26, #83 ) ;
#123 = FACE_BOUND ( 'NONE', #147, .T. ) ;
#124 = DIRECTION ( 'NONE',  ( -3.491481338843133355E-15, 9.031770143711729009E-17, -1.000000000000000000 ) ) ;
#125 = DIRECTION ( 'NONE',  ( -3.491481338843133355E-15, -4.784693173270753661E-16, -1.000000000000000000 ) ) ;
#126 = DIRECTION ( 'NONE',  ( -3.491481338843133355E-15, 9.031770143711729009E-17, -1.000000000000000000 ) ) ;
#127 = FACE_BOUND ( 'NONE', #241, .T. ) ;
#128 = CARTESIAN_POINT ( 'NONE',  ( 4.728603002376411424E-14, 2.258999999999998121, 13.54325726954389353 ) ) ;
#129 = ORIENTED_EDGE ( 'NONE', *, *, #172, .T. ) ;
#130 = VERTEX_POINT ( 'NONE', #148 ) ;
#131 = EDGE_CURVE ( 'NONE', #186, #186, #137, .T. ) ;
#132 = AXIS2_PLACEMENT_3D ( 'NONE', #107, #180, #9 ) ;
#133 = PERSON_AND_ORGANIZATION ( #68, #46 ) ;
#134 = DIRECTION ( 'NONE',  ( 1.000000000000000000, 0.0000000000000000000, 0.0000000000000000000 ) ) ;
#135 = EDGE_CURVE ( 'NONE', #130, #130, #5, .T. ) ;
#136 = CC_DESIGN_PERSON_AND_ORGANIZATION_ASSIGNMENT ( #164, #237, ( #19 ) ) ;
#137 = CIRCLE ( 'NONE', #234, 1.999999999999991784 ) ;
#138 = LOCAL_TIME ( 11, 2, 57.00000000000000000, #227 ) ;
#139 = CARTESIAN_POINT ( 'NONE',  ( 4.728603002376410792E-14, 2.258999999999998121, 13.54325726954389175 ) ) ;
#140 = FACE_OUTER_BOUND ( 'NONE', #238, .T. ) ;
#141 = AXIS2_PLACEMENT_3D ( 'NONE', #175, #124, #54 ) ;
#142 = DIRECTION ( 'NONE',  ( -3.491481338843133355E-15, -4.784693173270753661E-16, -1.000000000000000000 ) ) ;
#143 = FACE_OUTER_BOUND ( 'NONE', #18, .T. ) ;
#144 = DIRECTION ( 'NONE',  ( 3.153425691349006731E-31, 1.000000000000000000, 9.031770143711729009E-17 ) ) ;
#145 = AXIS2_PLACEMENT_3D ( 'NONE', #58, #142, #73 ) ;
#146 = APPROVAL_STATUS ( 'not_yet_approved' ) ;
#147 = EDGE_LOOP ( 'NONE', ( #185 ) ) ;
#148 = CARTESIAN_POINT ( 'NONE',  ( 4.728603002376411424E-14, 2.258999999999998121, 13.54325726954389353 ) ) ;
#149 = EDGE_LOOP ( 'NONE', ( #90 ) ) ;
#150 = APPROVAL_DATE_TIME ( #25, #78 ) ;
#151 = VERTEX_POINT ( 'NONE', #128 ) ;
#152 = SECURITY_CLASSIFICATION ( '', '', #61 ) ;
#153 = MECHANICAL_CONTEXT ( 'NONE', #243, 'mechanical' ) ;
#154 = ADVANCED_FACE ( 'NONE', ( #140, #160 ), #210, .T. ) ;
#155 = DATE_AND_TIME ( #117, #55 ) ;
#156 = CYLINDRICAL_SURFACE ( 'NONE', #211, 2.258999999999995012 ) ;
#157 = CC_DESIGN_PERSON_AND_ORGANIZATION_ASSIGNMENT ( #208, #99, ( #152 ) ) ;
#158 = CARTESIAN_POINT ( 'NONE',  ( 0.0000000000000000000, 0.0000000000000000000, 0.0000000000000000000 ) ) ;
#159 = MANIFOLD_SOLID_BREP ( 'Corps-Déplacer/Copier1[2]', #50 ) ;
#160 = FACE_OUTER_BOUND ( 'NONE', #21, .T. ) ;
#161 = FACE_OUTER_BOUND ( 'NONE', #24, .T. ) ;
#162 = PRODUCT ( '321355', '321355', '', ( #153 ) ) ;
#163 = FACE_OUTER_BOUND ( 'NONE', #96, .T. ) ;
#164 = PERSON_AND_ORGANIZATION ( #68, #46 ) ;
#165 = ORIENTED_EDGE ( 'NONE', *, *, #1, .T. ) ;
#166 = LOCAL_TIME ( 11, 2, 57.00000000000000000, #111 ) ;
#167 = ADVANCED_FACE ( 'NONE', ( #143 ), #35, .T. ) ;
#168 = APPROVAL_ROLE ( '' ) ;
#169 = ORIENTED_EDGE ( 'NONE', *, *, #131, .F. ) ;
#170 = DIRECTION ( 'NONE',  ( 0.0000000000000000000, 0.0000000000000000000, 1.000000000000000000 ) ) ;
#171 = AXIS2_PLACEMENT_3D ( 'NONE', #139, #196, #144 ) ;
#172 = EDGE_CURVE ( 'NONE', #45, #45, #93, .T. ) ;
#173 = PRODUCT_DEFINITION ( 'UNKNOWN', '', #19, #188 ) ;
#174 = APPROVAL_PERSON_ORGANIZATION ( #67, #78, #168 ) ;
#175 = CARTESIAN_POINT ( 'NONE',  ( 2.793185071074506684E-13, -7.225416114969383207E-15, 80.00000000000000000 ) ) ;
#176 = PLANE ( 'NONE',  #197 ) ;
#177 = DIRECTION ( 'NONE',  ( -3.491481338843133355E-15, 9.031770143711729009E-17, -1.000000000000000000 ) ) ;
#178 = ADVANCED_FACE ( 'NONE', ( #229 ), #72, .T. ) ;
#179 = CONICAL_SURFACE ( 'NONE', #87, 2.028059892324148628, 0.5235987755982979275 ) ;
#180 = DIRECTION ( 'NONE',  ( -3.491481338843133355E-15, 9.031770143711729009E-17, -1.000000000000000000 ) ) ;
#181 = EDGE_LOOP ( 'NONE', ( #60 ) ) ;
#182 = CARTESIAN_POINT ( 'NONE',  ( 0.0000000000000000000, 0.0000000000000000000, 0.0000000000000000000 ) ) ;
#183 = DIRECTION ( 'NONE',  ( -3.491481338843133355E-15, -4.784693173270753661E-16, -1.000000000000000000 ) ) ;
#184 = CARTESIAN_POINT ( 'NONE',  ( 0.0000000000000000000, 0.0000000000000000000, 0.0000000000000000000 ) ) ;
#185 = ORIENTED_EDGE ( 'NONE', *, *, #131, .T. ) ;
#186 = VERTEX_POINT ( 'NONE', #23 ) ;
#187 = ORIENTED_EDGE ( 'NONE', *, *, #212, .T. ) ;
#188 = DESIGN_CONTEXT ( 'detailed design', #15, 'design' ) ;
#189 = CARTESIAN_POINT ( 'NONE',  ( 2.793185071074506684E-13, 1.599999999999987876, 80.00000000000000000 ) ) ;
#190 = APPLICATION_PROTOCOL_DEFINITION ( 'international standard', 'config_control_design', 1994, #243 ) ;
#191 = DATE_AND_TIME ( #114, #166 ) ;
#192 = CONICAL_SURFACE ( 'NONE', #132, 2.258999999999999453, 0.5235987755982929315 ) ;
#193 = EDGE_CURVE ( 'NONE', #17, #17, #106, .T. ) ;
#194 = ADVANCED_BREP_SHAPE_REPRESENTATION ( '321355', ( #82, #159, #121 ), #116 ) ;
#195 = SHAPE_DEFINITION_REPRESENTATION ( #12, #194 ) ;
#196 = DIRECTION ( 'NONE',  ( -3.491481338843133355E-15, 9.031770143711729009E-17, -1.000000000000000000 ) ) ;
#197 = AXIS2_PLACEMENT_3D ( 'NONE', #86, #75, #236 ) ;
#198 = CARTESIAN_POINT ( 'NONE',  ( 4.885231259955590439E-14, -1.263712492114123682E-15, 13.99185842870425134 ) ) ;
#199 = CARTESIAN_POINT ( 'NONE',  ( 4.728603002376411424E-14, -1.223195866556733764E-15, 13.54325726954389353 ) ) ;
#200 = DIRECTION ( 'NONE',  ( -1.670566692656497171E-30, 1.000000000000000000, -4.784693173270753661E-16 ) ) ;
#201 = DIRECTION ( 'NONE',  ( -3.491481338843133355E-15, -4.784693173270753661E-16, -1.000000000000000000 ) ) ;
#202 = ORIENTED_EDGE ( 'NONE', *, *, #232, .T. ) ;
#203 = DIRECTION ( 'NONE',  ( -1.705117259306982731E-30, 1.000000000000000000, -4.799478408523705519E-16 ) ) ;
#204 = AXIS2_PLACEMENT_3D ( 'NONE', #62, #183, #203 ) ;
#205 = PERSON_AND_ORGANIZATION ( #68, #46 ) ;
#206 = DATE_TIME_ROLE ( 'creation_date' ) ;
#207 = PERSON_AND_ORGANIZATION ( #68, #46 ) ;
#208 = PERSON_AND_ORGANIZATION ( #68, #46 ) ;
#209 = CARTESIAN_POINT ( 'NONE',  ( 2.793185071074506684E-13, -7.225416114969383207E-15, 80.00000000000000000 ) ) ;
#210 = CYLINDRICAL_SURFACE ( 'NONE', #228, 1.999999999999993561 ) ;
#211 = AXIS2_PLACEMENT_3D ( 'NONE', #182, #215, #213 ) ;
#212 = EDGE_CURVE ( 'NONE', #220, #220, #59, .T. ) ;
#213 = DIRECTION ( 'NONE',  ( -1.670566692656496821E-30, 1.000000000000000000, -4.784693173270753661E-16 ) ) ;
#214 = FACE_OUTER_BOUND ( 'NONE', #221, .T. ) ;
#215 = DIRECTION ( 'NONE',  ( -3.491481338843133355E-15, -4.784693173270753661E-16, -1.000000000000000000 ) ) ;
#216 = EDGE_LOOP ( 'NONE', ( #40 ) ) ;
#217 = ADVANCED_FACE ( 'NONE', ( #123, #161 ), #192, .T. ) ;
#218 = PERSON_AND_ORGANIZATION_ROLE ( 'design_supplier' ) ;
#219 = ORIENTED_EDGE ( 'NONE', *, *, #193, .T. ) ;
#220 = VERTEX_POINT ( 'NONE', #189 ) ;
#221 = EDGE_LOOP ( 'NONE', ( #202 ) ) ;
#222 = PERSON_AND_ORGANIZATION_ROLE ( 'creator' ) ;
#223 = ORIENTED_EDGE ( 'NONE', *, *, #1, .F. ) ;
#224 = CC_DESIGN_APPROVAL ( #78, ( #173 ) ) ;
#225 = CC_DESIGN_DATE_AND_TIME_ASSIGNMENT ( #191, #206, ( #173 ) ) ;
#226 = AXIS2_PLACEMENT_3D ( 'NONE', #209, #31, #30 ) ;
#227 = COORDINATED_UNIVERSAL_TIME_OFFSET ( 1, 0, .AHEAD. ) ;
#228 = AXIS2_PLACEMENT_3D ( 'NONE', #158, #230, #6 ) ;
#229 = FACE_OUTER_BOUND ( 'NONE', #36, .T. ) ;
#230 = DIRECTION ( 'NONE',  ( -3.491481338843133355E-15, 9.031770143711729009E-17, -1.000000000000000000 ) ) ;
#231 = CC_DESIGN_PERSON_AND_ORGANIZATION_ASSIGNMENT ( #133, #222, ( #173 ) ) ;
#232 = EDGE_CURVE ( 'NONE', #151, #151, #84, .T. ) ;
#233 = FACE_BOUND ( 'NONE', #149, .T. ) ;
#234 = AXIS2_PLACEMENT_3D ( 'NONE', #198, #85, #56 ) ;
#235 = CARTESIAN_POINT ( 'NONE',  ( 4.728603002376412055E-14, 6.480033060143618386E-15, 13.54325726954389530 ) ) ;
#236 = DIRECTION ( 'NONE',  ( 1.670566692656497171E-30, -1.000000000000000000, 4.784693173270753661E-16 ) ) ;
#237 = PERSON_AND_ORGANIZATION_ROLE ( 'creator' ) ;
#238 = EDGE_LOOP ( 'NONE', ( #219 ) ) ;
#239 = AXIS2_PLACEMENT_3D ( 'NONE', #88, #125, #200 ) ;
#240 = CALENDAR_DATE ( 2021, 26, 11 ) ;
#241 = EDGE_LOOP ( 'NONE', ( #187 ) ) ;
#242 = AXIS2_PLACEMENT_3D ( 'NONE', #235, #201, #74 ) ;
#243 = APPLICATION_CONTEXT ( 'configuration controlled 3d designs of mechanical parts and assemblies' ) ;
ENDSEC;
END-ISO-10303-21;
