ISO-10303-21;
HEADER;
FILE_DESCRIPTION (( 'STEP AP203' ),
    '1' );
FILE_NAME ('321354.step',
    '2021-11-26T10:02:56',
    ( '' ),
    ( '' ),
    'SwSTEP 2.0',
    'SolidWorks 2019',
    '' );
FILE_SCHEMA (( 'CONFIG_CONTROL_DESIGN' ));
ENDSEC;

DATA;
#1 = DIRECTION ( 'NONE',  ( 0.0000000000000000000, 1.000000000000000000, 0.0000000000000000000 ) ) ;
#2 = APPLICATION_CONTEXT ( 'configuration controlled 3d designs of mechanical parts and assemblies' ) ;
#3 = CC_DESIGN_PERSON_AND_ORGANIZATION_ASSIGNMENT ( #4, #115, ( #114 ) ) ;
#4 = PERSON_AND_ORGANIZATION ( #9, #51 ) ;
#5 = CONICAL_SURFACE ( 'NONE', #54, 2.253999999999999559, 0.5235987755982939307 ) ;
#6 = ADVANCED_FACE ( 'NONE', ( #200 ), #110, .T. ) ;
#7 = DATE_AND_TIME ( #163, #232 ) ;
#8 = FACE_OUTER_BOUND ( 'NONE', #82, .T. ) ;
#9 = PERSON ( 'UNSPECIFIED', 'UNSPECIFIED', 'UNSPECIFIED', ('UNSPECIFIED'), ('UNSPECIFIED'), ('UNSPECIFIED') ) ;
#10 = DIRECTION ( 'NONE',  ( 0.0000000000000000000, 0.0000000000000000000, 1.000000000000000000 ) ) ;
#11 = ORIENTED_EDGE ( 'NONE', *, *, #228, .T. ) ;
#12 = ORIENTED_EDGE ( 'NONE', *, *, #70, .F. ) ;
#13 = CARTESIAN_POINT ( 'NONE',  ( 2.779219145719134403E-13, -7.189289034394536528E-15, 79.60000000000000853 ) ) ;
#14 = PERSON_AND_ORGANIZATION_ROLE ( 'design_owner' ) ;
#15 = DIRECTION ( 'NONE',  ( -3.491481338843133355E-15, -4.780070346793304011E-16, -1.000000000000000000 ) ) ;
#16 = PLANE ( 'NONE',  #162 ) ;
#17 = CARTESIAN_POINT ( 'NONE',  ( 3.376391151042464817E-30, 4.622504219260990909E-31, 9.670368601085514070E-16 ) ) ;
#18 = CARTESIAN_POINT ( 'NONE',  ( 4.731626713912688928E-14, 2.253999999999998227, 13.55191752358173929 ) ) ;
#19 = FACE_OUTER_BOUND ( 'NONE', #169, .T. ) ;
#20 = CC_DESIGN_PERSON_AND_ORGANIZATION_ASSIGNMENT ( #68, #50, ( #170 ) ) ;
#21 = DIRECTION ( 'NONE',  ( 1.668952641418624478E-30, -1.000000000000000000, 4.780070346793304011E-16 ) ) ;
#22 = CARTESIAN_POINT ( 'NONE',  ( 0.0000000000000000000, 2.023059892324147846, 0.0000000000000000000 ) ) ;
#23 = CARTESIAN_POINT ( 'NONE',  ( 4.885231259955590439E-14, 1.999999999999990452, 13.99185842870425134 ) ) ;
#24 = AXIS2_PLACEMENT_3D ( 'NONE', #183, #194, #157 ) ;
#25 = CARTESIAN_POINT ( 'NONE',  ( 0.0000000000000000000, 0.0000000000000000000, 0.0000000000000000000 ) ) ;
#26 =( NAMED_UNIT ( * ) SI_UNIT ( $, .STERADIAN. ) SOLID_ANGLE_UNIT ( ) );
#27 = PRODUCT_RELATED_PRODUCT_CATEGORY ( 'detail', '', ( #177 ) ) ;
#28 = PERSON_AND_ORGANIZATION ( #9, #51 ) ;
#29 = CIRCLE ( 'NONE', #38, 1.999999999999991784 ) ;
#30 = DATE_TIME_ROLE ( 'creation_date' ) ;
#31 = CC_DESIGN_PERSON_AND_ORGANIZATION_ASSIGNMENT ( #230, #14, ( #177 ) ) ;
#32 = CARTESIAN_POINT ( 'NONE',  ( 4.731626713912689559E-14, 6.477911909666161987E-15, 13.55191752358174107 ) ) ;
#33 = EDGE_LOOP ( 'NONE', ( #235 ) ) ;
#34 = AXIS2_PLACEMENT_3D ( 'NONE', #243, #74, #142 ) ;
#35 = EDGE_LOOP ( 'NONE', ( #209 ) ) ;
#36 = APPROVAL ( #98, 'UNSPECIFIED' ) ;
#37 = DIRECTION ( 'NONE',  ( -1.708899684460725603E-30, 1.000000000000000000, -4.810124988844301263E-16 ) ) ;
#38 = AXIS2_PLACEMENT_3D ( 'NONE', #72, #107, #174 ) ;
#39 = DIRECTION ( 'NONE',  ( -3.491481338843133355E-15, -4.780070346793304011E-16, -1.000000000000000000 ) ) ;
#40 = EDGE_LOOP ( 'NONE', ( #88 ) ) ;
#41 = VERTEX_POINT ( 'NONE', #94 ) ;
#42 = APPROVAL_STATUS ( 'not_yet_approved' ) ;
#43 = CLOSED_SHELL ( 'NONE', ( #151, #73, #145, #118, #65 ) ) ;
#44 = APPROVAL_DATE_TIME ( #167, #214 ) ;
#45 = DATE_AND_TIME ( #208, #134 ) ;
#46 = CONICAL_SURFACE ( 'NONE', #143, 1.999999999999995337, 0.7853981633974516097 ) ;
#47 = EDGE_LOOP ( 'NONE', ( #103 ) ) ;
#48 = CARTESIAN_POINT ( 'NONE',  ( 2.793185071074506684E-13, -7.225416114969383207E-15, 80.00000000000000000 ) ) ;
#49 = DIRECTION ( 'NONE',  ( -3.491481338843133355E-15, -4.780070346793304011E-16, -1.000000000000000000 ) ) ;
#50 = PERSON_AND_ORGANIZATION_ROLE ( 'creator' ) ;
#51 = ORGANIZATION ( 'UNSPECIFIED', 'UNSPECIFIED', '' ) ;
#52 = ORIENTED_EDGE ( 'NONE', *, *, #222, .F. ) ;
#53 = DIRECTION ( 'NONE',  ( -3.491481338843133355E-15, 9.031770143711729009E-17, -1.000000000000000000 ) ) ;
#54 = AXIS2_PLACEMENT_3D ( 'NONE', #93, #161, #1 ) ;
#55 = FACE_OUTER_BOUND ( 'NONE', #40, .T. ) ;
#56 = CARTESIAN_POINT ( 'NONE',  ( 3.376391151042464817E-30, 4.622504219260990909E-31, 9.670368601085514070E-16 ) ) ;
#57 = EDGE_CURVE ( 'NONE', #41, #41, #204, .T. ) ;
#58 = AXIS2_PLACEMENT_3D ( 'NONE', #32, #49, #190 ) ;
#59 = DIRECTION ( 'NONE',  ( -3.491481338843133355E-15, 9.031770143711729009E-17, -1.000000000000000000 ) ) ;
#60 = CALENDAR_DATE ( 2021, 26, 11 ) ;
#61 = ADVANCED_FACE ( 'NONE', ( #219, #218 ), #239, .T. ) ;
#62 = APPLICATION_PROTOCOL_DEFINITION ( 'international standard', 'config_control_design', 1994, #223 ) ;
#63 = CALENDAR_DATE ( 2021, 26, 11 ) ;
#64 = EDGE_LOOP ( 'NONE', ( #185 ) ) ;
#65 = ADVANCED_FACE ( 'NONE', ( #241 ), #16, .T. ) ;
#66 = CIRCLE ( 'NONE', #99, 1.599999999999994982 ) ;
#67 = DIRECTION ( 'NONE',  ( -3.491481338843133355E-15, -4.780070346793304011E-16, -1.000000000000000000 ) ) ;
#68 = PERSON_AND_ORGANIZATION ( #9, #51 ) ;
#69 = ORIENTED_EDGE ( 'NONE', *, *, #181, .T. ) ;
#70 = EDGE_CURVE ( 'NONE', #199, #199, #29, .T. ) ;
#71 = FACE_BOUND ( 'NONE', #155, .T. ) ;
#72 = CARTESIAN_POINT ( 'NONE',  ( 4.885231259955590439E-14, -1.263712492114123682E-15, 13.99185842870425134 ) ) ;
#73 = ADVANCED_FACE ( 'NONE', ( #71, #144 ), #46, .T. ) ;
#74 = DIRECTION ( 'NONE',  ( -3.491481338843133355E-15, -4.780070346793304011E-16, -1.000000000000000000 ) ) ;
#75 = VERTEX_POINT ( 'NONE', #130 ) ;
#76 = CARTESIAN_POINT ( 'NONE',  ( 1.396592535537256695E-15, 1.912028138717326436E-16, 0.4000000000000010214 ) ) ;
#77 = CIRCLE ( 'NONE', #58, 2.253999999999991566 ) ;
#78 = SHAPE_DEFINITION_REPRESENTATION ( #141, #173 ) ;
#79 = CYLINDRICAL_SURFACE ( 'NONE', #175, 1.999999999999993561 ) ;
#80 = APPROVAL_PERSON_ORGANIZATION ( #28, #36, #168 ) ;
#81 = COORDINATED_UNIVERSAL_TIME_OFFSET ( 1, 0, .AHEAD. ) ;
#82 = EDGE_LOOP ( 'NONE', ( #69 ) ) ;
#83 = ADVANCED_FACE ( 'NONE', ( #55 ), #159, .T. ) ;
#84 = ORIENTED_EDGE ( 'NONE', *, *, #222, .T. ) ;
#85 = FACE_OUTER_BOUND ( 'NONE', #122, .T. ) ;
#86 = APPLICATION_PROTOCOL_DEFINITION ( 'international standard', 'config_control_design', 1994, #2 ) ;
#87 = AXIS2_PLACEMENT_3D ( 'NONE', #76, #15, #37 ) ;
#88 = ORIENTED_EDGE ( 'NONE', *, *, #236, .T. ) ;
#89 = DIRECTION ( 'NONE',  ( -3.491481338843133355E-15, 9.031770143711729009E-17, -1.000000000000000000 ) ) ;
#90 = DIRECTION ( 'NONE',  ( -1.668952641418624478E-30, 1.000000000000000000, -4.780070346793304011E-16 ) ) ;
#91 = LOCAL_TIME ( 11, 2, 56.00000000000000000, #221 ) ;
#92 = EDGE_CURVE ( 'NONE', #95, #95, #220, .T. ) ;
#93 = CARTESIAN_POINT ( 'NONE',  ( 4.731626713912688928E-14, -1.223978040795293454E-15, 13.55191752358173929 ) ) ;
#94 = CARTESIAN_POINT ( 'NONE',  ( 1.396592535537252948E-15, 2.253999999999997783, 0.3999999999999999112 ) ) ;
#95 = VERTEX_POINT ( 'NONE', #18 ) ;
#96 = APPROVAL_DATE_TIME ( #7, #113 ) ;
#97 = DATE_AND_TIME ( #119, #116 ) ;
#98 = APPROVAL_STATUS ( 'not_yet_approved' ) ;
#99 = AXIS2_PLACEMENT_3D ( 'NONE', #48, #123, #186 ) ;
#100 = EDGE_LOOP ( 'NONE', ( #12 ) ) ;
#101 = PERSON_AND_ORGANIZATION_ROLE ( 'creator' ) ;
#102 = CARTESIAN_POINT ( 'NONE',  ( 0.0000000000000000000, 0.0000000000000000000, 0.0000000000000000000 ) ) ;
#103 = ORIENTED_EDGE ( 'NONE', *, *, #57, .T. ) ;
#104 = PRODUCT_DEFINITION_FORMATION_WITH_SPECIFIED_SOURCE ( 'ANY', '', #177, .NOT_KNOWN. ) ;
#105 = ORIENTED_EDGE ( 'NONE', *, *, #228, .F. ) ;
#106 = CARTESIAN_POINT ( 'NONE',  ( 4.731626713912689559E-14, 2.253999999999998227, 13.55191752358174107 ) ) ;
#107 = DIRECTION ( 'NONE',  ( -3.491481338843133355E-15, 9.031770143711729009E-17, -1.000000000000000000 ) ) ;
#108 = DIRECTION ( 'NONE',  ( 3.491481338843133355E-15, 4.780070346793304011E-16, 1.000000000000000000 ) ) ;
#109 = CARTESIAN_POINT ( 'NONE',  ( 2.779219145719134403E-13, 1.999999999999988010, 79.60000000000000853 ) ) ;
#110 = PLANE ( 'NONE',  #148 ) ;
#111 = CARTESIAN_POINT ( 'NONE',  ( 4.731626713912689559E-14, 6.477911909666162775E-15, 13.55191752358174107 ) ) ;
#112 = VERTEX_POINT ( 'NONE', #22 ) ;
#113 = APPROVAL ( #42, 'UNSPECIFIED' ) ;
#114 = SECURITY_CLASSIFICATION ( '', '', #117 ) ;
#115 = PERSON_AND_ORGANIZATION_ROLE ( 'classification_officer' ) ;
#116 = LOCAL_TIME ( 11, 2, 56.00000000000000000, #121 ) ;
#117 = SECURITY_CLASSIFICATION_LEVEL ( 'unclassified' ) ;
#118 = ADVANCED_FACE ( 'NONE', ( #179, #19 ), #5, .T. ) ;
#119 = CALENDAR_DATE ( 2021, 26, 11 ) ;
#120 = APPROVAL_DATE_TIME ( #45, #36 ) ;
#121 = COORDINATED_UNIVERSAL_TIME_OFFSET ( 1, 0, .AHEAD. ) ;
#122 = EDGE_LOOP ( 'NONE', ( #11 ) ) ;
#123 = DIRECTION ( 'NONE',  ( -3.491481338843133355E-15, 9.031770143711729009E-17, -1.000000000000000000 ) ) ;
#124 = EDGE_LOOP ( 'NONE', ( #52 ) ) ;
#125 = AXIS2_PLACEMENT_3D ( 'NONE', #171, #10, #188 ) ;
#126 = FACE_OUTER_BOUND ( 'NONE', #124, .T. ) ;
#127 = ORIENTED_EDGE ( 'NONE', *, *, #92, .T. ) ;
#128 = AXIS2_PLACEMENT_3D ( 'NONE', #102, #67, #90 ) ;
#129 = DIRECTION ( 'NONE',  ( 0.0000000000000000000, 1.000000000000000000, 0.0000000000000000000 ) ) ;
#130 = CARTESIAN_POINT ( 'NONE',  ( 4.731626713912688928E-14, 2.253999999999998227, 13.55191752358173929 ) ) ;
#131 = DIRECTION ( 'NONE',  ( 3.491481338843133355E-15, 4.780070346793304011E-16, 1.000000000000000000 ) ) ;
#132 = AXIS2_PLACEMENT_3D ( 'NONE', #17, #131, #238 ) ;
#133 = FACE_OUTER_BOUND ( 'NONE', #100, .T. ) ;
#134 = LOCAL_TIME ( 11, 2, 56.00000000000000000, #81 ) ;
#135 = APPROVAL_PERSON_ORGANIZATION ( #164, #113, #197 ) ;
#136 = AXIS2_PLACEMENT_3D ( 'NONE', #13, #152, #137 ) ;
#137 = DIRECTION ( 'NONE',  ( 0.0000000000000000000, 1.000000000000000000, 0.0000000000000000000 ) ) ;
#138 = CYLINDRICAL_SURFACE ( 'NONE', #128, 2.253999999999994674 ) ;
#139 = PERSON_AND_ORGANIZATION ( #9, #51 ) ;
#140 = UNCERTAINTY_MEASURE_WITH_UNIT (LENGTH_MEASURE( 1.000000000000000082E-05 ), #166, 'distance_accuracy_value', 'NONE');
#141 = PRODUCT_DEFINITION_SHAPE ( 'NONE', 'NONE',  #170 ) ;
#142 = DIRECTION ( 'NONE',  ( -1.668952641418624478E-30, 1.000000000000000000, -4.780070346793304011E-16 ) ) ;
#143 = AXIS2_PLACEMENT_3D ( 'NONE', #215, #196, #176 ) ;
#144 = FACE_OUTER_BOUND ( 'NONE', #35, .T. ) ;
#145 = ADVANCED_FACE ( 'NONE', ( #8, #133 ), #79, .T. ) ;
#146 = DATE_TIME_ROLE ( 'classification_date' ) ;
#147 = ADVANCED_FACE ( 'NONE', ( #85, #187 ), #138, .T. ) ;
#148 = AXIS2_PLACEMENT_3D ( 'NONE', #111, #108, #21 ) ;
#149 = CC_DESIGN_DATE_AND_TIME_ASSIGNMENT ( #202, #146, ( #114 ) ) ;
#150 = EDGE_LOOP ( 'NONE', ( #105 ) ) ;
#151 = ADVANCED_FACE ( 'NONE', ( #126 ), #233, .T. ) ;
#152 = DIRECTION ( 'NONE',  ( -3.491481338843133355E-15, 9.031770143711729009E-17, -1.000000000000000000 ) ) ;
#153 = APPROVAL_STATUS ( 'not_yet_approved' ) ;
#154 =( GEOMETRIC_REPRESENTATION_CONTEXT ( 3 ) GLOBAL_UNCERTAINTY_ASSIGNED_CONTEXT ( ( #140 ) ) GLOBAL_UNIT_ASSIGNED_CONTEXT ( ( #166, #227, #26 ) ) REPRESENTATION_CONTEXT ( 'NONE', 'WORKASPACE' ) );
#155 = EDGE_LOOP ( 'NONE', ( #84 ) ) ;
#156 = CIRCLE ( 'NONE', #136, 1.999999999999995337 ) ;
#157 = DIRECTION ( 'NONE',  ( -3.153425691349006731E-31, -1.000000000000000000, -9.031770143711729009E-17 ) ) ;
#158 = VERTEX_POINT ( 'NONE', #109 ) ;
#159 = PLANE ( 'NONE',  #34 ) ;
#160 = VERTEX_POINT ( 'NONE', #178 ) ;
#161 = DIRECTION ( 'NONE',  ( -3.491481338843133355E-15, 9.031770143711729009E-17, -1.000000000000000000 ) ) ;
#162 = AXIS2_PLACEMENT_3D ( 'NONE', #106, #89, #195 ) ;
#163 = CALENDAR_DATE ( 2021, 26, 11 ) ;
#164 = PERSON_AND_ORGANIZATION ( #9, #51 ) ;
#165 = CLOSED_SHELL ( 'NONE', ( #6, #147, #61, #83 ) ) ;
#166 =( LENGTH_UNIT ( ) NAMED_UNIT ( * ) SI_UNIT ( .MILLI., .METRE. ) );
#167 = DATE_AND_TIME ( #63, #182 ) ;
#168 = APPROVAL_ROLE ( '' ) ;
#169 = EDGE_LOOP ( 'NONE', ( #237 ) ) ;
#170 = PRODUCT_DEFINITION ( 'UNKNOWN', '', #104, #240 ) ;
#171 = CARTESIAN_POINT ( 'NONE',  ( 0.0000000000000000000, 0.0000000000000000000, 0.0000000000000000000 ) ) ;
#172 = EDGE_LOOP ( 'NONE', ( #191 ) ) ;
#173 = ADVANCED_BREP_SHAPE_REPRESENTATION ( '321354', ( #207, #210, #125 ), #154 ) ;
#174 = DIRECTION ( 'NONE',  ( 0.0000000000000000000, 1.000000000000000000, 0.0000000000000000000 ) ) ;
#175 = AXIS2_PLACEMENT_3D ( 'NONE', #25, #59, #225 ) ;
#176 = DIRECTION ( 'NONE',  ( 0.0000000000000000000, 1.000000000000000000, 0.0000000000000000000 ) ) ;
#177 = PRODUCT ( '321354', '321354', '', ( #234 ) ) ;
#178 = CARTESIAN_POINT ( 'NONE',  ( 2.793185071074506684E-13, 1.599999999999987876, 80.00000000000000000 ) ) ;
#179 = FACE_BOUND ( 'NONE', #172, .T. ) ;
#180 = APPROVAL_PERSON_ORGANIZATION ( #139, #214, #231 ) ;
#181 = EDGE_CURVE ( 'NONE', #158, #158, #156, .T. ) ;
#182 = LOCAL_TIME ( 11, 2, 56.00000000000000000, #211 ) ;
#183 = CARTESIAN_POINT ( 'NONE',  ( 2.793185071074506684E-13, -7.225416114969383207E-15, 80.00000000000000000 ) ) ;
#184 = PERSON_AND_ORGANIZATION ( #9, #51 ) ;
#185 = ORIENTED_EDGE ( 'NONE', *, *, #57, .F. ) ;
#186 = DIRECTION ( 'NONE',  ( 0.0000000000000000000, 1.000000000000000000, 0.0000000000000000000 ) ) ;
#187 = FACE_OUTER_BOUND ( 'NONE', #64, .T. ) ;
#188 = DIRECTION ( 'NONE',  ( 1.000000000000000000, 0.0000000000000000000, 0.0000000000000000000 ) ) ;
#189 = EDGE_LOOP ( 'NONE', ( #127 ) ) ;
#190 = DIRECTION ( 'NONE',  ( -2.734239495137168602E-30, 1.000000000000000000, -7.696199982150903517E-16 ) ) ;
#191 = ORIENTED_EDGE ( 'NONE', *, *, #70, .T. ) ;
#192 = CIRCLE ( 'NONE', #198, 2.023059892324147846 ) ;
#193 = CC_DESIGN_PERSON_AND_ORGANIZATION_ASSIGNMENT ( #184, #101, ( #104 ) ) ;
#194 = DIRECTION ( 'NONE',  ( 3.491481338843133355E-15, -9.031770143711729009E-17, 1.000000000000000000 ) ) ;
#195 = DIRECTION ( 'NONE',  ( 3.153425691349006731E-31, 1.000000000000000000, 9.031770143711729009E-17 ) ) ;
#196 = DIRECTION ( 'NONE',  ( -3.491481338843133355E-15, 9.031770143711729009E-17, -1.000000000000000000 ) ) ;
#197 = APPROVAL_ROLE ( '' ) ;
#198 = AXIS2_PLACEMENT_3D ( 'NONE', #56, #39, #201 ) ;
#199 = VERTEX_POINT ( 'NONE', #23 ) ;
#200 = FACE_OUTER_BOUND ( 'NONE', #150, .T. ) ;
#201 = DIRECTION ( 'NONE',  ( -1.668952641418624478E-30, 1.000000000000000000, -4.780070346793304011E-16 ) ) ;
#202 = DATE_AND_TIME ( #60, #91 ) ;
#203 = CC_DESIGN_PERSON_AND_ORGANIZATION_ASSIGNMENT ( #242, #229, ( #104 ) ) ;
#204 = CIRCLE ( 'NONE', #87, 2.253999999999997783 ) ;
#205 = CC_DESIGN_SECURITY_CLASSIFICATION ( #114, ( #104 ) ) ;
#206 = CC_DESIGN_APPROVAL ( #113, ( #114 ) ) ;
#207 = MANIFOLD_SOLID_BREP ( 'Corps-Déplacer/Copier1[1]', #43 ) ;
#208 = CALENDAR_DATE ( 2021, 26, 11 ) ;
#209 = ORIENTED_EDGE ( 'NONE', *, *, #181, .F. ) ;
#210 = MANIFOLD_SOLID_BREP ( 'Corps-Déplacer/Copier1[2]', #165 ) ;
#211 = COORDINATED_UNIVERSAL_TIME_OFFSET ( 1, 0, .AHEAD. ) ;
#212 = CC_DESIGN_DATE_AND_TIME_ASSIGNMENT ( #97, #30, ( #170 ) ) ;
#213 = CC_DESIGN_APPROVAL ( #36, ( #104 ) ) ;
#214 = APPROVAL ( #153, 'UNSPECIFIED' ) ;
#215 = CARTESIAN_POINT ( 'NONE',  ( 2.779219145719134403E-13, -7.189289034394536528E-15, 79.60000000000000853 ) ) ;
#216 = CARTESIAN_POINT ( 'NONE',  ( 4.731626713912688928E-14, -1.223978040795293454E-15, 13.55191752358173929 ) ) ;
#217 = CC_DESIGN_APPROVAL ( #214, ( #170 ) ) ;
#218 = FACE_BOUND ( 'NONE', #33, .T. ) ;
#219 = FACE_OUTER_BOUND ( 'NONE', #47, .T. ) ;
#220 = CIRCLE ( 'NONE', #226, 2.253999999999999559 ) ;
#221 = COORDINATED_UNIVERSAL_TIME_OFFSET ( 1, 0, .AHEAD. ) ;
#222 = EDGE_CURVE ( 'NONE', #160, #160, #66, .T. ) ;
#223 = APPLICATION_CONTEXT ( 'configuration controlled 3d designs of mechanical parts and assemblies' ) ;
#224 = COORDINATED_UNIVERSAL_TIME_OFFSET ( 1, 0, .AHEAD. ) ;
#225 = DIRECTION ( 'NONE',  ( 3.153425691349006731E-31, 1.000000000000000000, 9.031770143711729009E-17 ) ) ;
#226 = AXIS2_PLACEMENT_3D ( 'NONE', #216, #53, #129 ) ;
#227 =( NAMED_UNIT ( * ) PLANE_ANGLE_UNIT ( ) SI_UNIT ( $, .RADIAN. ) );
#228 = EDGE_CURVE ( 'NONE', #75, #75, #77, .T. ) ;
#229 = PERSON_AND_ORGANIZATION_ROLE ( 'design_supplier' ) ;
#230 = PERSON_AND_ORGANIZATION ( #9, #51 ) ;
#231 = APPROVAL_ROLE ( '' ) ;
#232 = LOCAL_TIME ( 11, 2, 56.00000000000000000, #224 ) ;
#233 = PLANE ( 'NONE',  #24 ) ;
#234 = MECHANICAL_CONTEXT ( 'NONE', #223, 'mechanical' ) ;
#235 = ORIENTED_EDGE ( 'NONE', *, *, #236, .F. ) ;
#236 = EDGE_CURVE ( 'NONE', #112, #112, #192, .T. ) ;
#237 = ORIENTED_EDGE ( 'NONE', *, *, #92, .F. ) ;
#238 = DIRECTION ( 'NONE',  ( 1.668952641418624478E-30, -1.000000000000000000, 4.780070346793304011E-16 ) ) ;
#239 = CONICAL_SURFACE ( 'NONE', #132, 2.023059892324147846, 0.5235987755982979275 ) ;
#240 = DESIGN_CONTEXT ( 'detailed design', #2, 'design' ) ;
#241 = FACE_OUTER_BOUND ( 'NONE', #189, .T. ) ;
#242 = PERSON_AND_ORGANIZATION ( #9, #51 ) ;
#243 = CARTESIAN_POINT ( 'NONE',  ( -1.688195575521232409E-30, 2.023059892324147846, -4.835184300542757035E-16 ) ) ;
ENDSEC;
END-ISO-10303-21;
