ISO-10303-21;
HEADER;
FILE_DESCRIPTION (( 'STEP AP203' ),
    '1' );
FILE_NAME ('321353.step',
    '2021-11-26T10:02:56',
    ( '' ),
    ( '' ),
    'SwSTEP 2.0',
    'SolidWorks 2019',
    '' );
FILE_SCHEMA (( 'CONFIG_CONTROL_DESIGN' ));
ENDSEC;

DATA;
#1 = EDGE_CURVE ( 'NONE', #203, #203, #32, .T. ) ;
#2 = VERTEX_POINT ( 'NONE', #168 ) ;
#3 = EDGE_LOOP ( 'NONE', ( #177 ) ) ;
#4 = AXIS2_PLACEMENT_3D ( 'NONE', #57, #223, #183 ) ;
#5 = VERTEX_POINT ( 'NONE', #76 ) ;
#6 = COORDINATED_UNIVERSAL_TIME_OFFSET ( 1, 0, .AHEAD. ) ;
#7 = SECURITY_CLASSIFICATION_LEVEL ( 'unclassified' ) ;
#8 = DIRECTION ( 'NONE',  ( 1.000000000000000000, 0.0000000000000000000, 0.0000000000000000000 ) ) ;
#9 = APPROVAL_ROLE ( '' ) ;
#10 = ORIENTED_EDGE ( 'NONE', *, *, #52, .F. ) ;
#11 = PERSON_AND_ORGANIZATION ( #70, #33 ) ;
#12 = COORDINATED_UNIVERSAL_TIME_OFFSET ( 1, 0, .AHEAD. ) ;
#13 = EDGE_LOOP ( 'NONE', ( #195 ) ) ;
#14 = DIRECTION ( 'NONE',  ( -3.491481338843133355E-15, 9.031770143711729009E-17, -1.000000000000000000 ) ) ;
#15 = APPROVAL_PERSON_ORGANIZATION ( #11, #159, #205 ) ;
#16 = APPLICATION_CONTEXT ( 'configuration controlled 3d designs of mechanical parts and assemblies' ) ;
#17 = AXIS2_PLACEMENT_3D ( 'NONE', #211, #200, #41 ) ;
#18 = FACE_OUTER_BOUND ( 'NONE', #218, .T. ) ;
#19 = DIRECTION ( 'NONE',  ( -3.491481338843133355E-15, 9.031770143711729009E-17, -1.000000000000000000 ) ) ;
#20 = APPROVAL ( #115, 'UNSPECIFIED' ) ;
#21 = DIRECTION ( 'NONE',  ( 1.667340651758657314E-30, -1.000000000000000000, 4.775453424909650674E-16 ) ) ;
#22 = APPROVAL ( #122, 'UNSPECIFIED' ) ;
#23 = CARTESIAN_POINT ( 'NONE',  ( 4.885231259955590439E-14, 1.999999999999990452, 13.99185842870425134 ) ) ;
#24 = DATE_AND_TIME ( #185, #39 ) ;
#25 = CARTESIAN_POINT ( 'NONE',  ( 4.734650425448965801E-14, 2.248999999999998334, 13.56057777761958150 ) ) ;
#26 = PERSON_AND_ORGANIZATION ( #70, #33 ) ;
#27 = CARTESIAN_POINT ( 'NONE',  ( 1.396592535537256695E-15, 1.910181369963865003E-16, 0.4000000000000010214 ) ) ;
#28 = DATE_AND_TIME ( #174, #137 ) ;
#29 = PRODUCT_DEFINITION ( 'UNKNOWN', '', #162, #198 ) ;
#30 = ORIENTED_EDGE ( 'NONE', *, *, #69, .T. ) ;
#31 = PERSON_AND_ORGANIZATION ( #70, #33 ) ;
#32 = CIRCLE ( 'NONE', #50, 1.999999999999995337 ) ;
#33 = ORGANIZATION ( 'UNSPECIFIED', 'UNSPECIFIED', '' ) ;
#34 = APPLICATION_PROTOCOL_DEFINITION ( 'international standard', 'config_control_design', 1994, #109 ) ;
#35 = CARTESIAN_POINT ( 'NONE',  ( 2.779219145719134403E-13, -7.189289034394536528E-15, 79.60000000000000853 ) ) ;
#36 = AXIS2_PLACEMENT_3D ( 'NONE', #220, #148, #90 ) ;
#37 = ADVANCED_FACE ( 'NONE', ( #120, #47 ), #234, .T. ) ;
#38 = CONICAL_SURFACE ( 'NONE', #164, 1.999999999999995337, 0.7853981633974516097 ) ;
#39 = LOCAL_TIME ( 11, 2, 56.00000000000000000, #112 ) ;
#40 = DIRECTION ( 'NONE',  ( -3.491481338843133355E-15, 9.031770143711729009E-17, -1.000000000000000000 ) ) ;
#41 = DIRECTION ( 'NONE',  ( -2.740318284588340557E-30, 1.000000000000000000, -7.713310253342879589E-16 ) ) ;
#42 = FACE_OUTER_BOUND ( 'NONE', #216, .T. ) ;
#43 = EDGE_LOOP ( 'NONE', ( #127 ) ) ;
#44 = DIRECTION ( 'NONE',  ( -3.491481338843133355E-15, -4.775453424909650674E-16, -1.000000000000000000 ) ) ;
#45 = AXIS2_PLACEMENT_3D ( 'NONE', #55, #226, #160 ) ;
#46 = ORIENTED_EDGE ( 'NONE', *, *, #188, .F. ) ;
#47 = FACE_OUTER_BOUND ( 'NONE', #171, .T. ) ;
#48 = SECURITY_CLASSIFICATION ( '', '', #7 ) ;
#49 = FACE_OUTER_BOUND ( 'NONE', #43, .T. ) ;
#50 = AXIS2_PLACEMENT_3D ( 'NONE', #35, #126, #217 ) ;
#51 = APPROVAL_PERSON_ORGANIZATION ( #192, #22, #9 ) ;
#52 = EDGE_CURVE ( 'NONE', #97, #97, #161, .T. ) ;
#53 = DIRECTION ( 'NONE',  ( 3.491481338843133355E-15, 4.775453424909650674E-16, 1.000000000000000000 ) ) ;
#54 = CIRCLE ( 'NONE', #67, 2.018059892324148841 ) ;
#55 = CARTESIAN_POINT ( 'NONE',  ( 4.734650425448966432E-14, 6.475790759188714265E-15, 13.56057777761958327 ) ) ;
#56 = PERSON_AND_ORGANIZATION ( #70, #33 ) ;
#57 = CARTESIAN_POINT ( 'NONE',  ( 0.0000000000000000000, 0.0000000000000000000, 0.0000000000000000000 ) ) ;
#58 = ADVANCED_FACE ( 'NONE', ( #62 ), #152, .T. ) ;
#59 = EDGE_LOOP ( 'NONE', ( #46 ) ) ;
#60 = PERSON_AND_ORGANIZATION_ROLE ( 'design_supplier' ) ;
#61 = COORDINATED_UNIVERSAL_TIME_OFFSET ( 1, 0, .AHEAD. ) ;
#62 = FACE_OUTER_BOUND ( 'NONE', #65, .T. ) ;
#63 = ADVANCED_FACE ( 'NONE', ( #123 ), #108, .T. ) ;
#64 = DIRECTION ( 'NONE',  ( 3.153425691349006731E-31, 1.000000000000000000, 9.031770143711729009E-17 ) ) ;
#65 = EDGE_LOOP ( 'NONE', ( #236 ) ) ;
#66 = CC_DESIGN_PERSON_AND_ORGANIZATION_ASSIGNMENT ( #125, #60, ( #162 ) ) ;
#67 = AXIS2_PLACEMENT_3D ( 'NONE', #197, #142, #111 ) ;
#68 = AXIS2_PLACEMENT_3D ( 'NONE', #131, #53, #21 ) ;
#69 = EDGE_CURVE ( 'NONE', #2, #2, #141, .T. ) ;
#70 = PERSON ( 'UNSPECIFIED', 'UNSPECIFIED', 'UNSPECIFIED', ('UNSPECIFIED'), ('UNSPECIFIED'), ('UNSPECIFIED') ) ;
#71 = AXIS2_PLACEMENT_3D ( 'NONE', #88, #235, #64 ) ;
#72 = AXIS2_PLACEMENT_3D ( 'NONE', #151, #189, #8 ) ;
#73 = FACE_OUTER_BOUND ( 'NONE', #173, .T. ) ;
#74 = FACE_OUTER_BOUND ( 'NONE', #80, .T. ) ;
#75 = AXIS2_PLACEMENT_3D ( 'NONE', #241, #19, #243 ) ;
#76 = CARTESIAN_POINT ( 'NONE',  ( 2.793185071074506684E-13, 1.599999999999987876, 80.00000000000000000 ) ) ;
#77 = FACE_OUTER_BOUND ( 'NONE', #59, .T. ) ;
#78 = PERSON_AND_ORGANIZATION_ROLE ( 'classification_officer' ) ;
#79 = CALENDAR_DATE ( 2021, 26, 11 ) ;
#80 = EDGE_LOOP ( 'NONE', ( #190 ) ) ;
#81 = AXIS2_PLACEMENT_3D ( 'NONE', #27, #102, #233 ) ;
#82 = LOCAL_TIME ( 11, 2, 56.00000000000000000, #6 ) ;
#83 = DIRECTION ( 'NONE',  ( -3.491481338843133355E-15, -4.775453424909650674E-16, -1.000000000000000000 ) ) ;
#84 = DATE_AND_TIME ( #107, #82 ) ;
#85 = EDGE_CURVE ( 'NONE', #132, #132, #96, .T. ) ;
#86 =( LENGTH_UNIT ( ) NAMED_UNIT ( * ) SI_UNIT ( .MILLI., .METRE. ) );
#87 = ORIENTED_EDGE ( 'NONE', *, *, #105, .T. ) ;
#88 = CARTESIAN_POINT ( 'NONE',  ( 4.734650425448966432E-14, 2.248999999999998334, 13.56057777761958327 ) ) ;
#89 = LOCAL_TIME ( 11, 2, 56.00000000000000000, #12 ) ;
#90 = DIRECTION ( 'NONE',  ( -3.153425691349006731E-31, -1.000000000000000000, -9.031770143711729009E-17 ) ) ;
#91 = EDGE_CURVE ( 'NONE', #98, #98, #54, .T. ) ;
#92 = DIRECTION ( 'NONE',  ( -3.491481338843133355E-15, 9.031770143711729009E-17, -1.000000000000000000 ) ) ;
#93 = SHAPE_DEFINITION_REPRESENTATION ( #128, #225 ) ;
#94 = PRODUCT ( '321353', '321353', '', ( #119 ) ) ;
#95 = EDGE_LOOP ( 'NONE', ( #110 ) ) ;
#96 = CIRCLE ( 'NONE', #136, 1.999999999999991784 ) ;
#97 = VERTEX_POINT ( 'NONE', #206 ) ;
#98 = VERTEX_POINT ( 'NONE', #165 ) ;
#99 = APPROVAL_DATE_TIME ( #24, #159 ) ;
#100 = DIRECTION ( 'NONE',  ( 0.0000000000000000000, 1.000000000000000000, 0.0000000000000000000 ) ) ;
#101 = PERSON_AND_ORGANIZATION_ROLE ( 'creator' ) ;
#102 = DIRECTION ( 'NONE',  ( -3.491481338843133355E-15, -4.775453424909650674E-16, -1.000000000000000000 ) ) ;
#103 = PERSON_AND_ORGANIZATION ( #70, #33 ) ;
#104 = EDGE_LOOP ( 'NONE', ( #30 ) ) ;
#105 = EDGE_CURVE ( 'NONE', #5, #5, #222, .T. ) ;
#106 = ORIENTED_EDGE ( 'NONE', *, *, #105, .F. ) ;
#107 = CALENDAR_DATE ( 2021, 26, 11 ) ;
#108 = PLANE ( 'NONE',  #71 ) ;
#109 = APPLICATION_CONTEXT ( 'configuration controlled 3d designs of mechanical parts and assemblies' ) ;
#110 = ORIENTED_EDGE ( 'NONE', *, *, #188, .T. ) ;
#111 = DIRECTION ( 'NONE',  ( -1.667340651758657314E-30, 1.000000000000000000, -4.775453424909650674E-16 ) ) ;
#112 = COORDINATED_UNIVERSAL_TIME_OFFSET ( 1, 0, .AHEAD. ) ;
#113 = CARTESIAN_POINT ( 'NONE',  ( 2.779219145719134403E-13, 1.999999999999988010, 79.60000000000000853 ) ) ;
#114 = CLOSED_SHELL ( 'NONE', ( #146, #37, #240, #58 ) ) ;
#115 = APPROVAL_STATUS ( 'not_yet_approved' ) ;
#116 = PLANE ( 'NONE',  #45 ) ;
#117 = DIRECTION ( 'NONE',  ( -3.491481338843133355E-15, 9.031770143711729009E-17, -1.000000000000000000 ) ) ;
#118 = CC_DESIGN_PERSON_AND_ORGANIZATION_ASSIGNMENT ( #26, #101, ( #162 ) ) ;
#119 = MECHANICAL_CONTEXT ( 'NONE', #109, 'mechanical' ) ;
#120 = FACE_OUTER_BOUND ( 'NONE', #95, .T. ) ;
#121 = COORDINATED_UNIVERSAL_TIME_OFFSET ( 1, 0, .AHEAD. ) ;
#122 = APPROVAL_STATUS ( 'not_yet_approved' ) ;
#123 = FACE_OUTER_BOUND ( 'NONE', #104, .T. ) ;
#124 = CIRCLE ( 'NONE', #17, 2.248999999999991672 ) ;
#125 = PERSON_AND_ORGANIZATION ( #70, #33 ) ;
#126 = DIRECTION ( 'NONE',  ( -3.491481338843133355E-15, 9.031770143711729009E-17, -1.000000000000000000 ) ) ;
#127 = ORIENTED_EDGE ( 'NONE', *, *, #1, .F. ) ;
#128 = PRODUCT_DEFINITION_SHAPE ( 'NONE', 'NONE',  #29 ) ;
#129 = MANIFOLD_SOLID_BREP ( 'Corps-Déplacer/Copier1[1]', #130 ) ;
#130 = CLOSED_SHELL ( 'NONE', ( #153, #237, #219, #196, #63 ) ) ;
#131 = CARTESIAN_POINT ( 'NONE',  ( 3.364793296155752288E-30, 4.602176586618711599E-31, 9.637151024472158408E-16 ) ) ;
#132 = VERTEX_POINT ( 'NONE', #23 ) ;
#133 = APPROVAL_STATUS ( 'not_yet_approved' ) ;
#134 = DIRECTION ( 'NONE',  ( 0.0000000000000000000, 1.000000000000000000, 0.0000000000000000000 ) ) ;
#135 = FACE_OUTER_BOUND ( 'NONE', #3, .T. ) ;
#136 = AXIS2_PLACEMENT_3D ( 'NONE', #180, #14, #179 ) ;
#137 = LOCAL_TIME ( 11, 2, 56.00000000000000000, #121 ) ;
#138 =( NAMED_UNIT ( * ) PLANE_ANGLE_UNIT ( ) SI_UNIT ( $, .RADIAN. ) );
#139 = CALENDAR_DATE ( 2021, 26, 11 ) ;
#140 = CC_DESIGN_PERSON_AND_ORGANIZATION_ASSIGNMENT ( #31, #78, ( #48 ) ) ;
#141 = CIRCLE ( 'NONE', #178, 2.248999999999999666 ) ;
#142 = DIRECTION ( 'NONE',  ( -3.491481338843133355E-15, -4.775453424909650674E-16, -1.000000000000000000 ) ) ;
#143 = AXIS2_PLACEMENT_3D ( 'NONE', #194, #83, #176 ) ;
#144 = CC_DESIGN_PERSON_AND_ORGANIZATION_ASSIGNMENT ( #103, #170, ( #94 ) ) ;
#145 = FACE_BOUND ( 'NONE', #157, .T. ) ;
#146 = ADVANCED_FACE ( 'NONE', ( #77 ), #116, .T. ) ;
#147 = CONICAL_SURFACE ( 'NONE', #75, 2.248999999999999666, 0.5235987755982932645 ) ;
#148 = DIRECTION ( 'NONE',  ( 3.491481338843133355E-15, -9.031770143711729009E-17, 1.000000000000000000 ) ) ;
#149 = CC_DESIGN_APPROVAL ( #20, ( #162 ) ) ;
#150 = VERTEX_POINT ( 'NONE', #25 ) ;
#151 = CARTESIAN_POINT ( 'NONE',  ( 0.0000000000000000000, 0.0000000000000000000, 0.0000000000000000000 ) ) ;
#152 = PLANE ( 'NONE',  #238 ) ;
#153 = ADVANCED_FACE ( 'NONE', ( #73 ), #184, .T. ) ;
#154 =( NAMED_UNIT ( * ) SI_UNIT ( $, .STERADIAN. ) SOLID_ANGLE_UNIT ( ) );
#155 = DIRECTION ( 'NONE',  ( -1.667340651758657314E-30, 1.000000000000000000, -4.775453424909650674E-16 ) ) ;
#156 = LOCAL_TIME ( 11, 2, 56.00000000000000000, #61 ) ;
#157 = EDGE_LOOP ( 'NONE', ( #87 ) ) ;
#158 = UNCERTAINTY_MEASURE_WITH_UNIT (LENGTH_MEASURE( 1.000000000000000082E-05 ), #86, 'distance_accuracy_value', 'NONE');
#159 = APPROVAL ( #133, 'UNSPECIFIED' ) ;
#160 = DIRECTION ( 'NONE',  ( 1.667340651758657314E-30, -1.000000000000000000, 4.775453424909650674E-16 ) ) ;
#161 = CIRCLE ( 'NONE', #81, 2.248999999999998778 ) ;
#162 = PRODUCT_DEFINITION_FORMATION_WITH_SPECIFIED_SOURCE ( 'ANY', '', #94, .NOT_KNOWN. ) ;
#163 = CARTESIAN_POINT ( 'NONE',  ( 2.793185071074506684E-13, -7.225416114969383207E-15, 80.00000000000000000 ) ) ;
#164 = AXIS2_PLACEMENT_3D ( 'NONE', #221, #40, #100 ) ;
#165 = CARTESIAN_POINT ( 'NONE',  ( 0.0000000000000000000, 2.018059892324148841, 0.0000000000000000000 ) ) ;
#166 = APPROVAL_PERSON_ORGANIZATION ( #208, #20, #187 ) ;
#167 = ORIENTED_EDGE ( 'NONE', *, *, #85, .F. ) ;
#168 = CARTESIAN_POINT ( 'NONE',  ( 4.734650425448965801E-14, 2.248999999999998334, 13.56057777761958150 ) ) ;
#169 = ORIENTED_EDGE ( 'NONE', *, *, #69, .F. ) ;
#170 = PERSON_AND_ORGANIZATION_ROLE ( 'design_owner' ) ;
#171 = EDGE_LOOP ( 'NONE', ( #10 ) ) ;
#172 = DATE_TIME_ROLE ( 'creation_date' ) ;
#173 = EDGE_LOOP ( 'NONE', ( #106 ) ) ;
#174 = CALENDAR_DATE ( 2021, 26, 11 ) ;
#175 = CC_DESIGN_PERSON_AND_ORGANIZATION_ASSIGNMENT ( #56, #191, ( #29 ) ) ;
#176 = DIRECTION ( 'NONE',  ( -1.667340651758657314E-30, 1.000000000000000000, -4.775453424909650674E-16 ) ) ;
#177 = ORIENTED_EDGE ( 'NONE', *, *, #52, .T. ) ;
#178 = AXIS2_PLACEMENT_3D ( 'NONE', #242, #117, #232 ) ;
#179 = DIRECTION ( 'NONE',  ( 0.0000000000000000000, 1.000000000000000000, 0.0000000000000000000 ) ) ;
#180 = CARTESIAN_POINT ( 'NONE',  ( 4.885231259955590439E-14, -1.263712492114123682E-15, 13.99185842870425134 ) ) ;
#181 =( GEOMETRIC_REPRESENTATION_CONTEXT ( 3 ) GLOBAL_UNCERTAINTY_ASSIGNED_CONTEXT ( ( #158 ) ) GLOBAL_UNIT_ASSIGNED_CONTEXT ( ( #86, #138, #154 ) ) REPRESENTATION_CONTEXT ( 'NONE', 'WORKASPACE' ) );
#182 = PRODUCT_RELATED_PRODUCT_CATEGORY ( 'detail', '', ( #94 ) ) ;
#183 = DIRECTION ( 'NONE',  ( 3.153425691349006731E-31, 1.000000000000000000, 9.031770143711729009E-17 ) ) ;
#184 = PLANE ( 'NONE',  #36 ) ;
#185 = CALENDAR_DATE ( 2021, 26, 11 ) ;
#186 = FACE_BOUND ( 'NONE', #230, .T. ) ;
#187 = APPROVAL_ROLE ( '' ) ;
#188 = EDGE_CURVE ( 'NONE', #150, #150, #124, .T. ) ;
#189 = DIRECTION ( 'NONE',  ( 0.0000000000000000000, 0.0000000000000000000, 1.000000000000000000 ) ) ;
#190 = ORIENTED_EDGE ( 'NONE', *, *, #1, .T. ) ;
#191 = PERSON_AND_ORGANIZATION_ROLE ( 'creator' ) ;
#192 = PERSON_AND_ORGANIZATION ( #70, #33 ) ;
#193 = APPROVAL_DATE_TIME ( #229, #22 ) ;
#194 = CARTESIAN_POINT ( 'NONE',  ( 0.0000000000000000000, 0.0000000000000000000, 0.0000000000000000000 ) ) ;
#195 = ORIENTED_EDGE ( 'NONE', *, *, #85, .T. ) ;
#196 = ADVANCED_FACE ( 'NONE', ( #228, #42 ), #147, .T. ) ;
#197 = CARTESIAN_POINT ( 'NONE',  ( 3.364793296155752288E-30, 4.602176586618711599E-31, 9.637151024472158408E-16 ) ) ;
#198 = DESIGN_CONTEXT ( 'detailed design', #16, 'design' ) ;
#199 = MANIFOLD_SOLID_BREP ( 'Corps-Déplacer/Copier1[2]', #114 ) ;
#200 = DIRECTION ( 'NONE',  ( -3.491481338843133355E-15, -4.775453424909650674E-16, -1.000000000000000000 ) ) ;
#201 = CC_DESIGN_APPROVAL ( #159, ( #48 ) ) ;
#202 = CC_DESIGN_APPROVAL ( #22, ( #29 ) ) ;
#203 = VERTEX_POINT ( 'NONE', #113 ) ;
#204 = CYLINDRICAL_SURFACE ( 'NONE', #4, 1.999999999999993561 ) ;
#205 = APPROVAL_ROLE ( '' ) ;
#206 = CARTESIAN_POINT ( 'NONE',  ( 1.396592535537253145E-15, 2.248999999999998778, 0.3999999999999999112 ) ) ;
#207 = CC_DESIGN_DATE_AND_TIME_ASSIGNMENT ( #84, #172, ( #29 ) ) ;
#208 = PERSON_AND_ORGANIZATION ( #70, #33 ) ;
#209 = AXIS2_PLACEMENT_3D ( 'NONE', #163, #92, #134 ) ;
#210 = CC_DESIGN_SECURITY_CLASSIFICATION ( #48, ( #162 ) ) ;
#211 = CARTESIAN_POINT ( 'NONE',  ( 4.734650425448966432E-14, 6.475790759188714265E-15, 13.56057777761958327 ) ) ;
#212 = ORIENTED_EDGE ( 'NONE', *, *, #91, .F. ) ;
#213 = DATE_TIME_ROLE ( 'classification_date' ) ;
#214 = APPLICATION_PROTOCOL_DEFINITION ( 'international standard', 'config_control_design', 1994, #16 ) ;
#215 = CARTESIAN_POINT ( 'NONE',  ( -1.682396648077876144E-30, 2.018059892324148841, -4.818575512236079204E-16 ) ) ;
#216 = EDGE_LOOP ( 'NONE', ( #169 ) ) ;
#217 = DIRECTION ( 'NONE',  ( 0.0000000000000000000, 1.000000000000000000, 0.0000000000000000000 ) ) ;
#218 = EDGE_LOOP ( 'NONE', ( #167 ) ) ;
#219 = ADVANCED_FACE ( 'NONE', ( #74, #18 ), #204, .T. ) ;
#220 = CARTESIAN_POINT ( 'NONE',  ( 2.793185071074506684E-13, -7.225416114969383207E-15, 80.00000000000000000 ) ) ;
#221 = CARTESIAN_POINT ( 'NONE',  ( 2.779219145719134403E-13, -7.189289034394536528E-15, 79.60000000000000853 ) ) ;
#222 = CIRCLE ( 'NONE', #209, 1.599999999999994982 ) ;
#223 = DIRECTION ( 'NONE',  ( -3.491481338843133355E-15, 9.031770143711729009E-17, -1.000000000000000000 ) ) ;
#224 = DATE_AND_TIME ( #139, #89 ) ;
#225 = ADVANCED_BREP_SHAPE_REPRESENTATION ( '321353', ( #129, #199, #72 ), #181 ) ;
#226 = DIRECTION ( 'NONE',  ( 3.491481338843133355E-15, 4.775453424909650674E-16, 1.000000000000000000 ) ) ;
#227 = CC_DESIGN_DATE_AND_TIME_ASSIGNMENT ( #224, #213, ( #48 ) ) ;
#228 = FACE_BOUND ( 'NONE', #13, .T. ) ;
#229 = DATE_AND_TIME ( #79, #156 ) ;
#230 = EDGE_LOOP ( 'NONE', ( #212 ) ) ;
#231 = APPROVAL_DATE_TIME ( #28, #20 ) ;
#232 = DIRECTION ( 'NONE',  ( 0.0000000000000000000, 1.000000000000000000, 0.0000000000000000000 ) ) ;
#233 = DIRECTION ( 'NONE',  ( -1.627063981474321841E-30, 1.000000000000000000, -4.820818908339284213E-16 ) ) ;
#234 = CYLINDRICAL_SURFACE ( 'NONE', #143, 2.248999999999995225 ) ;
#235 = DIRECTION ( 'NONE',  ( -3.491481338843133355E-15, 9.031770143711729009E-17, -1.000000000000000000 ) ) ;
#236 = ORIENTED_EDGE ( 'NONE', *, *, #91, .T. ) ;
#237 = ADVANCED_FACE ( 'NONE', ( #145, #49 ), #38, .T. ) ;
#238 = AXIS2_PLACEMENT_3D ( 'NONE', #215, #44, #155 ) ;
#239 = CONICAL_SURFACE ( 'NONE', #68, 2.018059892324148841, 0.5235987755982979275 ) ;
#240 = ADVANCED_FACE ( 'NONE', ( #135, #186 ), #239, .T. ) ;
#241 = CARTESIAN_POINT ( 'NONE',  ( 4.734650425448965801E-14, -1.224760215033852947E-15, 13.56057777761958150 ) ) ;
#242 = CARTESIAN_POINT ( 'NONE',  ( 4.734650425448965801E-14, -1.224760215033852947E-15, 13.56057777761958150 ) ) ;
#243 = DIRECTION ( 'NONE',  ( 0.0000000000000000000, 1.000000000000000000, 0.0000000000000000000 ) ) ;
ENDSEC;
END-ISO-10303-21;
