ISO-10303-21;
HEADER;
FILE_DESCRIPTION (( 'STEP AP203' ),
    '1' );
FILE_NAME ('321352.step',
    '2021-11-26T10:02:55',
    ( '' ),
    ( '' ),
    'SwSTEP 2.0',
    'SolidWorks 2019',
    '' );
FILE_SCHEMA (( 'CONFIG_CONTROL_DESIGN' ));
ENDSEC;

DATA;
#1 = ADVANCED_FACE ( 'NONE', ( #176, #10 ), #52, .T. ) ;
#2 = PERSON_AND_ORGANIZATION ( #118, #141 ) ;
#3 = ORIENTED_EDGE ( 'NONE', *, *, #95, .F. ) ;
#4 = CLOSED_SHELL ( 'NONE', ( #38, #1, #86, #6 ) ) ;
#5 = LOCAL_TIME ( 11, 2, 55.00000000000000000, #91 ) ;
#6 = ADVANCED_FACE ( 'NONE', ( #165 ), #236, .T. ) ;
#7 = CARTESIAN_POINT ( 'NONE',  ( 2.793185071074506684E-13, -7.225416114969383207E-15, 80.00000000000000000 ) ) ;
#8 = CARTESIAN_POINT ( 'NONE',  ( 4.885231259955590439E-14, -1.263712492114123682E-15, 13.99185842870425134 ) ) ;
#9 = CARTESIAN_POINT ( 'NONE',  ( 2.779219145719134403E-13, -7.189289034394536528E-15, 79.60000000000000853 ) ) ;
#10 = FACE_OUTER_BOUND ( 'NONE', #80, .T. ) ;
#11 = DIRECTION ( 'NONE',  ( -3.491481338843133355E-15, -4.770842396314377554E-16, -1.000000000000000000 ) ) ;
#12 = EDGE_LOOP ( 'NONE', ( #174 ) ) ;
#13 = CARTESIAN_POINT ( 'NONE',  ( 4.737674136985243305E-14, -1.225542389272412441E-15, 13.56923803165742548 ) ) ;
#14 = APPROVAL_STATUS ( 'not_yet_approved' ) ;
#15 = DIRECTION ( 'NONE',  ( -2.746424163119062325E-30, 1.000000000000000000, -7.730496773515209631E-16 ) ) ;
#16 = CONICAL_SURFACE ( 'NONE', #177, 2.013059892324148503, 0.5235987755982979275 ) ;
#17 = CIRCLE ( 'NONE', #228, 2.243999999999997996 ) ;
#18 = PERSON_AND_ORGANIZATION ( #118, #141 ) ;
#19 = COORDINATED_UNIVERSAL_TIME_OFFSET ( 1, 0, .AHEAD. ) ;
#20 = ORIENTED_EDGE ( 'NONE', *, *, #158, .T. ) ;
#21 = APPROVAL ( #208, 'UNSPECIFIED' ) ;
#22 = VERTEX_POINT ( 'NONE', #101 ) ;
#23 = DIRECTION ( 'NONE',  ( -3.491481338843133355E-15, 9.031770143711729009E-17, -1.000000000000000000 ) ) ;
#24 = FACE_OUTER_BOUND ( 'NONE', #96, .T. ) ;
#25 = AXIS2_PLACEMENT_3D ( 'NONE', #175, #87, #109 ) ;
#26 = DIRECTION ( 'NONE',  ( 0.0000000000000000000, 1.000000000000000000, 0.0000000000000000000 ) ) ;
#27 = SECURITY_CLASSIFICATION ( '', '', #140 ) ;
#28 = DIRECTION ( 'NONE',  ( 0.0000000000000000000, 0.0000000000000000000, 1.000000000000000000 ) ) ;
#29 = DIRECTION ( 'NONE',  ( -3.491481338843133355E-15, -4.770842396314377554E-16, -1.000000000000000000 ) ) ;
#30 = DIRECTION ( 'NONE',  ( 3.491481338843133355E-15, 4.770842396314377554E-16, 1.000000000000000000 ) ) ;
#31 = FACE_BOUND ( 'NONE', #145, .T. ) ;
#32 = EDGE_LOOP ( 'NONE', ( #47 ) ) ;
#33 = ADVANCED_FACE ( 'NONE', ( #217, #83 ), #89, .T. ) ;
#34 = DIRECTION ( 'NONE',  ( 1.665730719729330583E-30, -1.000000000000000000, 4.770842396314377554E-16 ) ) ;
#35 = AXIS2_PLACEMENT_3D ( 'NONE', #7, #147, #82 ) ;
#36 = DIRECTION ( 'NONE',  ( -3.491481338843133355E-15, 9.031770143711729009E-17, -1.000000000000000000 ) ) ;
#37 = CC_DESIGN_DATE_AND_TIME_ASSIGNMENT ( #60, #40, ( #192 ) ) ;
#38 = ADVANCED_FACE ( 'NONE', ( #234 ), #152, .T. ) ;
#39 = PERSON_AND_ORGANIZATION_ROLE ( 'classification_officer' ) ;
#40 = DATE_TIME_ROLE ( 'creation_date' ) ;
#41 = CIRCLE ( 'NONE', #122, 2.243999999999992223 ) ;
#42 = VERTEX_POINT ( 'NONE', #205 ) ;
#43 = MANIFOLD_SOLID_BREP ( 'Corps-Déplacer/Copier1[1]', #142 ) ;
#44 = CARTESIAN_POINT ( 'NONE',  ( 0.0000000000000000000, 2.013059892324148503, 0.0000000000000000000 ) ) ;
#45 = FACE_OUTER_BOUND ( 'NONE', #215, .T. ) ;
#46 = MANIFOLD_SOLID_BREP ( 'Corps-Déplacer/Copier1[2]', #4 ) ;
#47 = ORIENTED_EDGE ( 'NONE', *, *, #158, .F. ) ;
#48 = APPROVAL_ROLE ( '' ) ;
#49 = CYLINDRICAL_SURFACE ( 'NONE', #219, 1.999999999999993561 ) ;
#50 = VERTEX_POINT ( 'NONE', #62 ) ;
#51 = ORIENTED_EDGE ( 'NONE', *, *, #212, .F. ) ;
#52 = CYLINDRICAL_SURFACE ( 'NONE', #168, 2.243999999999995332 ) ;
#53 = APPLICATION_PROTOCOL_DEFINITION ( 'international standard', 'config_control_design', 1994, #74 ) ;
#54 = AXIS2_PLACEMENT_3D ( 'NONE', #211, #65, #69 ) ;
#55 = COORDINATED_UNIVERSAL_TIME_OFFSET ( 1, 0, .AHEAD. ) ;
#56 = PERSON_AND_ORGANIZATION ( #118, #141 ) ;
#57 = CALENDAR_DATE ( 2021, 26, 11 ) ;
#58 = CALENDAR_DATE ( 2021, 26, 11 ) ;
#59 = CC_DESIGN_APPROVAL ( #77, ( #192 ) ) ;
#60 = DATE_AND_TIME ( #243, #137 ) ;
#61 = AXIS2_PLACEMENT_3D ( 'NONE', #71, #28, #88 ) ;
#62 = CARTESIAN_POINT ( 'NONE',  ( 4.737674136985243305E-14, 2.243999999999998440, 13.56923803165742548 ) ) ;
#63 = ORIENTED_EDGE ( 'NONE', *, *, #242, .T. ) ;
#64 = ORIENTED_EDGE ( 'NONE', *, *, #202, .T. ) ;
#65 = DIRECTION ( 'NONE',  ( -3.491481338843133355E-15, 9.031770143711729009E-17, -1.000000000000000000 ) ) ;
#66 = CIRCLE ( 'NONE', #131, 1.999999999999991784 ) ;
#67 = CC_DESIGN_DATE_AND_TIME_ASSIGNMENT ( #185, #100, ( #27 ) ) ;
#68 = CARTESIAN_POINT ( 'NONE',  ( 3.353215703299352921E-30, 4.581912972958448836E-31, 9.603991480620102868E-16 ) ) ;
#69 = DIRECTION ( 'NONE',  ( 0.0000000000000000000, 1.000000000000000000, 0.0000000000000000000 ) ) ;
#70 = DIRECTION ( 'NONE',  ( 0.0000000000000000000, 1.000000000000000000, 0.0000000000000000000 ) ) ;
#71 = CARTESIAN_POINT ( 'NONE',  ( 0.0000000000000000000, 0.0000000000000000000, 0.0000000000000000000 ) ) ;
#72 = CC_DESIGN_PERSON_AND_ORGANIZATION_ASSIGNMENT ( #56, #117, ( #170 ) ) ;
#73 = CIRCLE ( 'NONE', #78, 1.599999999999994982 ) ;
#74 = APPLICATION_CONTEXT ( 'configuration controlled 3d designs of mechanical parts and assemblies' ) ;
#75 = CC_DESIGN_PERSON_AND_ORGANIZATION_ASSIGNMENT ( #200, #156, ( #170 ) ) ;
#76 = COORDINATED_UNIVERSAL_TIME_OFFSET ( 1, 0, .AHEAD. ) ;
#77 = APPROVAL ( #14, 'UNSPECIFIED' ) ;
#78 = AXIS2_PLACEMENT_3D ( 'NONE', #226, #102, #79 ) ;
#79 = DIRECTION ( 'NONE',  ( 0.0000000000000000000, 1.000000000000000000, 0.0000000000000000000 ) ) ;
#80 = EDGE_LOOP ( 'NONE', ( #51 ) ) ;
#81 = EDGE_LOOP ( 'NONE', ( #20 ) ) ;
#82 = DIRECTION ( 'NONE',  ( -3.153425691349006731E-31, -1.000000000000000000, -9.031770143711729009E-17 ) ) ;
#83 = FACE_OUTER_BOUND ( 'NONE', #130, .T. ) ;
#84 = DIRECTION ( 'NONE',  ( -3.491481338843133355E-15, -4.770842396314377554E-16, -1.000000000000000000 ) ) ;
#85 = FACE_OUTER_BOUND ( 'NONE', #195, .T. ) ;
#86 = ADVANCED_FACE ( 'NONE', ( #166, #193 ), #16, .T. ) ;
#87 = DIRECTION ( 'NONE',  ( -3.491481338843133355E-15, -4.770842396314377554E-16, -1.000000000000000000 ) ) ;
#88 = DIRECTION ( 'NONE',  ( 1.000000000000000000, 0.0000000000000000000, 0.0000000000000000000 ) ) ;
#89 = CONICAL_SURFACE ( 'NONE', #223, 1.999999999999995337, 0.7853981633974516097 ) ;
#90 = CC_DESIGN_APPROVAL ( #21, ( #27 ) ) ;
#91 = COORDINATED_UNIVERSAL_TIME_OFFSET ( 1, 0, .AHEAD. ) ;
#92 = CIRCLE ( 'NONE', #206, 2.013059892324148503 ) ;
#93 = APPROVAL_ROLE ( '' ) ;
#94 = ORIENTED_EDGE ( 'NONE', *, *, #212, .T. ) ;
#95 = EDGE_CURVE ( 'NONE', #230, #230, #129, .T. ) ;
#96 = EDGE_LOOP ( 'NONE', ( #207 ) ) ;
#97 = SHAPE_DEFINITION_REPRESENTATION ( #106, #218 ) ;
#98 = COORDINATED_UNIVERSAL_TIME_OFFSET ( 1, 0, .AHEAD. ) ;
#99 = CC_DESIGN_APPROVAL ( #159, ( #170 ) ) ;
#100 = DATE_TIME_ROLE ( 'classification_date' ) ;
#101 = CARTESIAN_POINT ( 'NONE',  ( 4.885231259955590439E-14, 1.999999999999990452, 13.99185842870425134 ) ) ;
#102 = DIRECTION ( 'NONE',  ( -3.491481338843133355E-15, 9.031770143711729009E-17, -1.000000000000000000 ) ) ;
#103 = APPROVAL_PERSON_ORGANIZATION ( #161, #77, #233 ) ;
#104 = DIRECTION ( 'NONE',  ( 0.0000000000000000000, 1.000000000000000000, 0.0000000000000000000 ) ) ;
#105 = EDGE_LOOP ( 'NONE', ( #63 ) ) ;
#106 = PRODUCT_DEFINITION_SHAPE ( 'NONE', 'NONE',  #192 ) ;
#107 = APPLICATION_PROTOCOL_DEFINITION ( 'international standard', 'config_control_design', 1994, #115 ) ;
#108 = DIRECTION ( 'NONE',  ( -3.491481338843133355E-15, 9.031770143711729009E-17, -1.000000000000000000 ) ) ;
#109 = DIRECTION ( 'NONE',  ( -1.665730719729330583E-30, 1.000000000000000000, -4.770842396314377554E-16 ) ) ;
#110 = ORIENTED_EDGE ( 'NONE', *, *, #167, .F. ) ;
#111 = ADVANCED_FACE ( 'NONE', ( #85 ), #194, .T. ) ;
#112 = LOCAL_TIME ( 11, 2, 55.00000000000000000, #55 ) ;
#113 = ORIENTED_EDGE ( 'NONE', *, *, #95, .T. ) ;
#114 = DIRECTION ( 'NONE',  ( -3.491481338843133355E-15, 9.031770143711729009E-17, -1.000000000000000000 ) ) ;
#115 = APPLICATION_CONTEXT ( 'configuration controlled 3d designs of mechanical parts and assemblies' ) ;
#116 =( NAMED_UNIT ( * ) PLANE_ANGLE_UNIT ( ) SI_UNIT ( $, .RADIAN. ) );
#117 = PERSON_AND_ORGANIZATION_ROLE ( 'creator' ) ;
#118 = PERSON ( 'UNSPECIFIED', 'UNSPECIFIED', 'UNSPECIFIED', ('UNSPECIFIED'), ('UNSPECIFIED'), ('UNSPECIFIED') ) ;
#119 = AXIS2_PLACEMENT_3D ( 'NONE', #138, #108, #26 ) ;
#120 = CALENDAR_DATE ( 2021, 26, 11 ) ;
#121 = DATE_AND_TIME ( #58, #112 ) ;
#122 = AXIS2_PLACEMENT_3D ( 'NONE', #132, #29, #15 ) ;
#123 = VERTEX_POINT ( 'NONE', #184 ) ;
#124 =( LENGTH_UNIT ( ) NAMED_UNIT ( * ) SI_UNIT ( .MILLI., .METRE. ) );
#125 = CIRCLE ( 'NONE', #54, 2.243999999999999773 ) ;
#126 = EDGE_CURVE ( 'NONE', #22, #22, #66, .T. ) ;
#127 = CALENDAR_DATE ( 2021, 26, 11 ) ;
#128 = DIRECTION ( 'NONE',  ( -3.491481338843133355E-15, 9.031770143711729009E-17, -1.000000000000000000 ) ) ;
#129 = CIRCLE ( 'NONE', #119, 1.999999999999995337 ) ;
#130 = EDGE_LOOP ( 'NONE', ( #3 ) ) ;
#131 = AXIS2_PLACEMENT_3D ( 'NONE', #8, #114, #104 ) ;
#132 = CARTESIAN_POINT ( 'NONE',  ( 4.737674136985243936E-14, 6.473669608711271276E-15, 13.56923803165742726 ) ) ;
#133 = EDGE_LOOP ( 'NONE', ( #64 ) ) ;
#134 = CARTESIAN_POINT ( 'NONE',  ( 4.737674136985242674E-14, 2.243999999999998440, 13.56923803165742370 ) ) ;
#135 = CARTESIAN_POINT ( 'NONE',  ( 4.737674136985242674E-14, 6.473669608711268909E-15, 13.56923803165742370 ) ) ;
#136 = MECHANICAL_CONTEXT ( 'NONE', #74, 'mechanical' ) ;
#137 = LOCAL_TIME ( 11, 2, 55.00000000000000000, #19 ) ;
#138 = CARTESIAN_POINT ( 'NONE',  ( 2.779219145719134403E-13, -7.189289034394536528E-15, 79.60000000000000853 ) ) ;
#139 = PERSON_AND_ORGANIZATION ( #118, #141 ) ;
#140 = SECURITY_CLASSIFICATION_LEVEL ( 'unclassified' ) ;
#141 = ORGANIZATION ( 'UNSPECIFIED', 'UNSPECIFIED', '' ) ;
#142 = CLOSED_SHELL ( 'NONE', ( #111, #33, #239, #151, #164 ) ) ;
#143 = LOCAL_TIME ( 11, 2, 55.00000000000000000, #76 ) ;
#144 = VERTEX_POINT ( 'NONE', #204 ) ;
#145 = EDGE_LOOP ( 'NONE', ( #172 ) ) ;
#146 = EDGE_LOOP ( 'NONE', ( #148 ) ) ;
#147 = DIRECTION ( 'NONE',  ( 3.491481338843133355E-15, -9.031770143711729009E-17, 1.000000000000000000 ) ) ;
#148 = ORIENTED_EDGE ( 'NONE', *, *, #202, .F. ) ;
#149 = DIRECTION ( 'NONE',  ( 3.491481338843133355E-15, 4.770842396314377554E-16, 1.000000000000000000 ) ) ;
#150 = FACE_OUTER_BOUND ( 'NONE', #81, .T. ) ;
#151 = ADVANCED_FACE ( 'NONE', ( #31, #179 ), #224, .T. ) ;
#152 = PLANE ( 'NONE',  #189 ) ;
#153 =( NAMED_UNIT ( * ) SI_UNIT ( $, .STERADIAN. ) SOLID_ANGLE_UNIT ( ) );
#154 = AXIS2_PLACEMENT_3D ( 'NONE', #13, #231, #191 ) ;
#155 = APPROVAL_STATUS ( 'not_yet_approved' ) ;
#156 = PERSON_AND_ORGANIZATION_ROLE ( 'design_supplier' ) ;
#157 = APPROVAL_DATE_TIME ( #169, #77 ) ;
#158 = EDGE_CURVE ( 'NONE', #42, #42, #125, .T. ) ;
#159 = APPROVAL ( #155, 'UNSPECIFIED' ) ;
#160 = ORIENTED_EDGE ( 'NONE', *, *, #242, .F. ) ;
#161 = PERSON_AND_ORGANIZATION ( #118, #141 ) ;
#162 = CARTESIAN_POINT ( 'NONE',  ( 0.0000000000000000000, 0.0000000000000000000, 0.0000000000000000000 ) ) ;
#163 = UNCERTAINTY_MEASURE_WITH_UNIT (LENGTH_MEASURE( 1.000000000000000082E-05 ), #124, 'distance_accuracy_value', 'NONE');
#164 = ADVANCED_FACE ( 'NONE', ( #150 ), #216, .T. ) ;
#165 = FACE_OUTER_BOUND ( 'NONE', #12, .T. ) ;
#166 = FACE_OUTER_BOUND ( 'NONE', #229, .T. ) ;
#167 = EDGE_CURVE ( 'NONE', #210, #210, #92, .T. ) ;
#168 = AXIS2_PLACEMENT_3D ( 'NONE', #162, #84, #237 ) ;
#169 = DATE_AND_TIME ( #120, #143 ) ;
#170 = PRODUCT_DEFINITION_FORMATION_WITH_SPECIFIED_SOURCE ( 'ANY', '', #221, .NOT_KNOWN. ) ;
#171 = CC_DESIGN_PERSON_AND_ORGANIZATION_ASSIGNMENT ( #139, #199, ( #221 ) ) ;
#172 = ORIENTED_EDGE ( 'NONE', *, *, #126, .T. ) ;
#173 = AXIS2_PLACEMENT_3D ( 'NONE', #134, #128, #188 ) ;
#174 = ORIENTED_EDGE ( 'NONE', *, *, #167, .T. ) ;
#175 = CARTESIAN_POINT ( 'NONE',  ( -1.676607851649676460E-30, 2.013059892324148503, -4.801995740310051434E-16 ) ) ;
#176 = FACE_OUTER_BOUND ( 'NONE', #133, .T. ) ;
#177 = AXIS2_PLACEMENT_3D ( 'NONE', #68, #149, #34 ) ;
#178 = CARTESIAN_POINT ( 'NONE',  ( 3.353215703299352921E-30, 4.581912972958448836E-31, 9.603991480620102868E-16 ) ) ;
#179 = FACE_OUTER_BOUND ( 'NONE', #32, .T. ) ;
#180 = DIRECTION ( 'NONE',  ( -1.630689346851939238E-30, 1.000000000000000000, -4.831560483446994063E-16 ) ) ;
#181 = APPROVAL_DATE_TIME ( #222, #159 ) ;
#182 = DIRECTION ( 'NONE',  ( -3.491481338843133355E-15, -4.770842396314377554E-16, -1.000000000000000000 ) ) ;
#183 = APPROVAL_PERSON_ORGANIZATION ( #18, #159, #93 ) ;
#184 = CARTESIAN_POINT ( 'NONE',  ( 2.793185071074506684E-13, 1.599999999999987876, 80.00000000000000000 ) ) ;
#185 = DATE_AND_TIME ( #127, #197 ) ;
#186 = CARTESIAN_POINT ( 'NONE',  ( 2.779219145719134403E-13, 1.999999999999988010, 79.60000000000000853 ) ) ;
#187 = DIRECTION ( 'NONE',  ( 3.153425691349006731E-31, 1.000000000000000000, 9.031770143711729009E-17 ) ) ;
#188 = DIRECTION ( 'NONE',  ( 3.153425691349006731E-31, 1.000000000000000000, 9.031770143711729009E-17 ) ) ;
#189 = AXIS2_PLACEMENT_3D ( 'NONE', #135, #30, #196 ) ;
#190 = APPROVAL_PERSON_ORGANIZATION ( #2, #21, #48 ) ;
#191 = DIRECTION ( 'NONE',  ( 0.0000000000000000000, 1.000000000000000000, 0.0000000000000000000 ) ) ;
#192 = PRODUCT_DEFINITION ( 'UNKNOWN', '', #170, #198 ) ;
#193 = FACE_BOUND ( 'NONE', #209, .T. ) ;
#194 = PLANE ( 'NONE',  #35 ) ;
#195 = EDGE_LOOP ( 'NONE', ( #160 ) ) ;
#196 = DIRECTION ( 'NONE',  ( 1.665730719729330583E-30, -1.000000000000000000, 4.770842396314377554E-16 ) ) ;
#197 = LOCAL_TIME ( 11, 2, 55.00000000000000000, #98 ) ;
#198 = DESIGN_CONTEXT ( 'detailed design', #115, 'design' ) ;
#199 = PERSON_AND_ORGANIZATION_ROLE ( 'design_owner' ) ;
#200 = PERSON_AND_ORGANIZATION ( #118, #141 ) ;
#201 = PERSON_AND_ORGANIZATION ( #118, #141 ) ;
#202 = EDGE_CURVE ( 'NONE', #50, #50, #41, .T. ) ;
#203 = CARTESIAN_POINT ( 'NONE',  ( 1.396592535537256695E-15, 1.908336958525755607E-16, 0.4000000000000010214 ) ) ;
#204 = CARTESIAN_POINT ( 'NONE',  ( 1.396592535537253145E-15, 2.243999999999997996, 0.3999999999999999112 ) ) ;
#205 = CARTESIAN_POINT ( 'NONE',  ( 4.737674136985243305E-14, 2.243999999999998440, 13.56923803165742548 ) ) ;
#206 = AXIS2_PLACEMENT_3D ( 'NONE', #178, #11, #213 ) ;
#207 = ORIENTED_EDGE ( 'NONE', *, *, #126, .F. ) ;
#208 = APPROVAL_STATUS ( 'not_yet_approved' ) ;
#209 = EDGE_LOOP ( 'NONE', ( #110 ) ) ;
#210 = VERTEX_POINT ( 'NONE', #44 ) ;
#211 = CARTESIAN_POINT ( 'NONE',  ( 4.737674136985243305E-14, -1.225542389272412441E-15, 13.56923803165742548 ) ) ;
#212 = EDGE_CURVE ( 'NONE', #144, #144, #17, .T. ) ;
#213 = DIRECTION ( 'NONE',  ( -1.665730719729330583E-30, 1.000000000000000000, -4.770842396314377554E-16 ) ) ;
#214 =( GEOMETRIC_REPRESENTATION_CONTEXT ( 3 ) GLOBAL_UNCERTAINTY_ASSIGNED_CONTEXT ( ( #163 ) ) GLOBAL_UNIT_ASSIGNED_CONTEXT ( ( #124, #116, #153 ) ) REPRESENTATION_CONTEXT ( 'NONE', 'WORKASPACE' ) );
#215 = EDGE_LOOP ( 'NONE', ( #113 ) ) ;
#216 = PLANE ( 'NONE',  #173 ) ;
#217 = FACE_BOUND ( 'NONE', #105, .T. ) ;
#218 = ADVANCED_BREP_SHAPE_REPRESENTATION ( '321352', ( #43, #46, #61 ), #214 ) ;
#219 = AXIS2_PLACEMENT_3D ( 'NONE', #227, #23, #187 ) ;
#220 = PRODUCT_RELATED_PRODUCT_CATEGORY ( 'detail', '', ( #221 ) ) ;
#221 = PRODUCT ( '321352', '321352', '', ( #136 ) ) ;
#222 = DATE_AND_TIME ( #57, #5 ) ;
#223 = AXIS2_PLACEMENT_3D ( 'NONE', #9, #36, #70 ) ;
#224 = CONICAL_SURFACE ( 'NONE', #154, 2.243999999999999773, 0.5235987755982925984 ) ;
#225 = APPROVAL_DATE_TIME ( #121, #21 ) ;
#226 = CARTESIAN_POINT ( 'NONE',  ( 2.793185071074506684E-13, -7.225416114969383207E-15, 80.00000000000000000 ) ) ;
#227 = CARTESIAN_POINT ( 'NONE',  ( 0.0000000000000000000, 0.0000000000000000000, 0.0000000000000000000 ) ) ;
#228 = AXIS2_PLACEMENT_3D ( 'NONE', #203, #182, #180 ) ;
#229 = EDGE_LOOP ( 'NONE', ( #94 ) ) ;
#230 = VERTEX_POINT ( 'NONE', #186 ) ;
#231 = DIRECTION ( 'NONE',  ( -3.491481338843133355E-15, 9.031770143711729009E-17, -1.000000000000000000 ) ) ;
#232 = CC_DESIGN_PERSON_AND_ORGANIZATION_ASSIGNMENT ( #201, #39, ( #27 ) ) ;
#233 = APPROVAL_ROLE ( '' ) ;
#234 = FACE_OUTER_BOUND ( 'NONE', #146, .T. ) ;
#235 = CC_DESIGN_PERSON_AND_ORGANIZATION_ASSIGNMENT ( #238, #240, ( #192 ) ) ;
#236 = PLANE ( 'NONE',  #25 ) ;
#237 = DIRECTION ( 'NONE',  ( -1.665730719729330583E-30, 1.000000000000000000, -4.770842396314376568E-16 ) ) ;
#238 = PERSON_AND_ORGANIZATION ( #118, #141 ) ;
#239 = ADVANCED_FACE ( 'NONE', ( #45, #24 ), #49, .T. ) ;
#240 = PERSON_AND_ORGANIZATION_ROLE ( 'creator' ) ;
#241 = CC_DESIGN_SECURITY_CLASSIFICATION ( #27, ( #170 ) ) ;
#242 = EDGE_CURVE ( 'NONE', #123, #123, #73, .T. ) ;
#243 = CALENDAR_DATE ( 2021, 26, 11 ) ;
ENDSEC;
END-ISO-10303-21;
