ISO-10303-21;
HEADER;
FILE_DESCRIPTION (( 'STEP AP203' ),
    '1' );
FILE_NAME ('321351.step',
    '2021-11-26T10:02:55',
    ( '' ),
    ( '' ),
    'SwSTEP 2.0',
    'SolidWorks 2019',
    '' );
FILE_SCHEMA (( 'CONFIG_CONTROL_DESIGN' ));
ENDSEC;

DATA;
#1 = CLOSED_SHELL ( 'NONE', ( #211, #159, #231, #238, #83 ) ) ;
#2 = EDGE_CURVE ( 'NONE', #154, #154, #105, .T. ) ;
#3 = DIRECTION ( 'NONE',  ( -3.491481338843133355E-15, 9.031770143711729009E-17, -1.000000000000000000 ) ) ;
#4 = ADVANCED_FACE ( 'NONE', ( #14 ), #200, .T. ) ;
#5 = DIRECTION ( 'NONE',  ( -3.153425691349006731E-31, -1.000000000000000000, -9.031770143711729009E-17 ) ) ;
#6 = ORIENTED_EDGE ( 'NONE', *, *, #51, .F. ) ;
#7 = CARTESIAN_POINT ( 'NONE',  ( 0.0000000000000000000, 0.0000000000000000000, 0.0000000000000000000 ) ) ;
#8 = ORIENTED_EDGE ( 'NONE', *, *, #19, .T. ) ;
#9 = AXIS2_PLACEMENT_3D ( 'NONE', #11, #175, #176 ) ;
#10 = CARTESIAN_POINT ( 'NONE',  ( 4.740697848521522072E-14, -1.226324563510972329E-15, 13.57789828569527302 ) ) ;
#11 = CARTESIAN_POINT ( 'NONE',  ( 1.396592535537256695E-15, 1.906494899892364069E-16, 0.4000000000000010214 ) ) ;
#12 = ORIENTED_EDGE ( 'NONE', *, *, #222, .T. ) ;
#13 = CALENDAR_DATE ( 2021, 26, 11 ) ;
#14 = FACE_OUTER_BOUND ( 'NONE', #121, .T. ) ;
#15 = CC_DESIGN_SECURITY_CLASSIFICATION ( #177, ( #194 ) ) ;
#16 = APPROVAL_PERSON_ORGANIZATION ( #37, #240, #173 ) ;
#17 = DIRECTION ( 'NONE',  ( -3.491481338843133355E-15, -4.766237249730898463E-16, -1.000000000000000000 ) ) ;
#18 = DIRECTION ( 'NONE',  ( 3.491481338843133355E-15, 4.766237249730898463E-16, 1.000000000000000000 ) ) ;
#19 = EDGE_CURVE ( 'NONE', #65, #65, #132, .T. ) ;
#20 = AXIS2_PLACEMENT_3D ( 'NONE', #107, #91, #165 ) ;
#21 = DIRECTION ( 'NONE',  ( 0.0000000000000000000, 1.000000000000000000, 0.0000000000000000000 ) ) ;
#22 = CYLINDRICAL_SURFACE ( 'NONE', #203, 2.238999999999994994 ) ;
#23 = CARTESIAN_POINT ( 'NONE',  ( 4.740697848521522072E-14, 2.238999999999998103, 13.57789828569527302 ) ) ;
#24 =( GEOMETRIC_REPRESENTATION_CONTEXT ( 3 ) GLOBAL_UNCERTAINTY_ASSIGNED_CONTEXT ( ( #137 ) ) GLOBAL_UNIT_ASSIGNED_CONTEXT ( ( #33, #174, #67 ) ) REPRESENTATION_CONTEXT ( 'NONE', 'WORKASPACE' ) );
#25 = EDGE_LOOP ( 'NONE', ( #63 ) ) ;
#26 = PERSON_AND_ORGANIZATION_ROLE ( 'creator' ) ;
#27 = CARTESIAN_POINT ( 'NONE',  ( 2.779219145719134403E-13, -7.189289034394536528E-15, 79.60000000000000853 ) ) ;
#28 = EDGE_LOOP ( 'NONE', ( #208 ) ) ;
#29 = VERTEX_POINT ( 'NONE', #153 ) ;
#30 = ORIENTED_EDGE ( 'NONE', *, *, #155, .T. ) ;
#31 = APPLICATION_CONTEXT ( 'configuration controlled 3d designs of mechanical parts and assemblies' ) ;
#32 = CIRCLE ( 'NONE', #35, 2.008059892324148610 ) ;
#33 =( LENGTH_UNIT ( ) NAMED_UNIT ( * ) SI_UNIT ( .MILLI., .METRE. ) );
#34 = APPROVAL_STATUS ( 'not_yet_approved' ) ;
#35 = AXIS2_PLACEMENT_3D ( 'NONE', #230, #73, #72 ) ;
#36 = ADVANCED_FACE ( 'NONE', ( #41, #133 ), #22, .T. ) ;
#37 = PERSON_AND_ORGANIZATION ( #108, #80 ) ;
#38 = FACE_BOUND ( 'NONE', #229, .T. ) ;
#39 = PERSON_AND_ORGANIZATION ( #108, #80 ) ;
#40 = DIRECTION ( 'NONE',  ( -1.664122841393445068E-30, 1.000000000000000000, -4.766237249730898463E-16 ) ) ;
#41 = FACE_OUTER_BOUND ( 'NONE', #171, .T. ) ;
#42 = PRODUCT_DEFINITION_SHAPE ( 'NONE', 'NONE',  #147 ) ;
#43 = CARTESIAN_POINT ( 'NONE',  ( 2.793185071074506684E-13, -7.225416114969383207E-15, 80.00000000000000000 ) ) ;
#44 = CALENDAR_DATE ( 2021, 26, 11 ) ;
#45 = CC_DESIGN_APPROVAL ( #240, ( #194 ) ) ;
#46 = COORDINATED_UNIVERSAL_TIME_OFFSET ( 1, 0, .AHEAD. ) ;
#47 = DATE_AND_TIME ( #218, #226 ) ;
#48 = CONICAL_SURFACE ( 'NONE', #239, 2.238999999999999435, 0.5235987755982938197 ) ;
#49 = DIRECTION ( 'NONE',  ( 0.0000000000000000000, 1.000000000000000000, 0.0000000000000000000 ) ) ;
#50 = AXIS2_PLACEMENT_3D ( 'NONE', #131, #202, #142 ) ;
#51 = EDGE_CURVE ( 'NONE', #151, #151, #32, .T. ) ;
#52 = CARTESIAN_POINT ( 'NONE',  ( 2.793185071074506684E-13, -7.225416114969383207E-15, 80.00000000000000000 ) ) ;
#53 = LOCAL_TIME ( 11, 2, 55.00000000000000000, #90 ) ;
#54 = FACE_OUTER_BOUND ( 'NONE', #79, .T. ) ;
#55 = ADVANCED_BREP_SHAPE_REPRESENTATION ( '321351', ( #187, #104, #188 ), #24 ) ;
#56 = CYLINDRICAL_SURFACE ( 'NONE', #204, 1.999999999999993561 ) ;
#57 = EDGE_LOOP ( 'NONE', ( #193 ) ) ;
#58 = DIRECTION ( 'NONE',  ( 0.0000000000000000000, 1.000000000000000000, 0.0000000000000000000 ) ) ;
#59 = AXIS2_PLACEMENT_3D ( 'NONE', #116, #166, #232 ) ;
#60 = CC_DESIGN_PERSON_AND_ORGANIZATION_ASSIGNMENT ( #124, #161, ( #96 ) ) ;
#61 = PERSON_AND_ORGANIZATION_ROLE ( 'creator' ) ;
#62 = CARTESIAN_POINT ( 'NONE',  ( 0.0000000000000000000, 2.008059892324148610, 0.0000000000000000000 ) ) ;
#63 = ORIENTED_EDGE ( 'NONE', *, *, #222, .F. ) ;
#64 = PRODUCT_RELATED_PRODUCT_CATEGORY ( 'detail', '', ( #96 ) ) ;
#65 = VERTEX_POINT ( 'NONE', #216 ) ;
#66 = CIRCLE ( 'NONE', #87, 1.999999999999995337 ) ;
#67 =( NAMED_UNIT ( * ) SI_UNIT ( $, .STERADIAN. ) SOLID_ANGLE_UNIT ( ) );
#68 = COORDINATED_UNIVERSAL_TIME_OFFSET ( 1, 0, .AHEAD. ) ;
#69 = CIRCLE ( 'NONE', #50, 2.238999999999999435 ) ;
#70 = SHAPE_DEFINITION_REPRESENTATION ( #42, #55 ) ;
#71 = CC_DESIGN_PERSON_AND_ORGANIZATION_ASSIGNMENT ( #150, #61, ( #147 ) ) ;
#72 = DIRECTION ( 'NONE',  ( -1.664122841393445068E-30, 1.000000000000000000, -4.766237249730898463E-16 ) ) ;
#73 = DIRECTION ( 'NONE',  ( -3.491481338843133355E-15, -4.766237249730898463E-16, -1.000000000000000000 ) ) ;
#74 = DATE_TIME_ROLE ( 'classification_date' ) ;
#75 = CARTESIAN_POINT ( 'NONE',  ( 2.779219145719134403E-13, -7.189289034394536528E-15, 79.60000000000000853 ) ) ;
#76 = CARTESIAN_POINT ( 'NONE',  ( 2.779219145719134403E-13, 1.999999999999988010, 79.60000000000000853 ) ) ;
#77 = PERSON_AND_ORGANIZATION_ROLE ( 'design_supplier' ) ;
#78 = DIRECTION ( 'NONE',  ( 3.153425691349006731E-31, 1.000000000000000000, 9.031770143711729009E-17 ) ) ;
#79 = EDGE_LOOP ( 'NONE', ( #114 ) ) ;
#80 = ORGANIZATION ( 'UNSPECIFIED', 'UNSPECIFIED', '' ) ;
#81 = VERTEX_POINT ( 'NONE', #117 ) ;
#82 = ORIENTED_EDGE ( 'NONE', *, *, #136, .F. ) ;
#83 = ADVANCED_FACE ( 'NONE', ( #92 ), #167, .T. ) ;
#84 = CC_DESIGN_APPROVAL ( #100, ( #177 ) ) ;
#85 = AXIS2_PLACEMENT_3D ( 'NONE', #27, #162, #21 ) ;
#86 = DIRECTION ( 'NONE',  ( 0.0000000000000000000, 0.0000000000000000000, 1.000000000000000000 ) ) ;
#87 = AXIS2_PLACEMENT_3D ( 'NONE', #75, #3, #148 ) ;
#88 = FACE_OUTER_BOUND ( 'NONE', #57, .T. ) ;
#89 = DIRECTION ( 'NONE',  ( -3.491481338843133355E-15, 9.031770143711729009E-17, -1.000000000000000000 ) ) ;
#90 = COORDINATED_UNIVERSAL_TIME_OFFSET ( 1, 0, .AHEAD. ) ;
#91 = DIRECTION ( 'NONE',  ( -3.491481338843133355E-15, -4.766237249730898463E-16, -1.000000000000000000 ) ) ;
#92 = FACE_OUTER_BOUND ( 'NONE', #212, .T. ) ;
#93 = CONICAL_SURFACE ( 'NONE', #59, 2.008059892324148610, 0.5235987755982979275 ) ;
#94 = EDGE_LOOP ( 'NONE', ( #12 ) ) ;
#95 = CARTESIAN_POINT ( 'NONE',  ( -1.670829166851338751E-30, 2.008059892324148610, -4.785444929242986607E-16 ) ) ;
#96 = PRODUCT ( '321351', '321351', '', ( #178 ) ) ;
#97 = ORIENTED_EDGE ( 'NONE', *, *, #220, .F. ) ;
#98 = DESIGN_CONTEXT ( 'detailed design', #31, 'design' ) ;
#99 = CC_DESIGN_APPROVAL ( #234, ( #147 ) ) ;
#100 = APPROVAL ( #103, 'UNSPECIFIED' ) ;
#101 = ORIENTED_EDGE ( 'NONE', *, *, #2, .T. ) ;
#102 = APPLICATION_PROTOCOL_DEFINITION ( 'international standard', 'config_control_design', 1994, #182 ) ;
#103 = APPROVAL_STATUS ( 'not_yet_approved' ) ;
#104 = MANIFOLD_SOLID_BREP ( 'Corps-Déplacer/Copier1[2]', #168 ) ;
#105 = CIRCLE ( 'NONE', #9, 2.238999999999998547 ) ;
#106 = ADVANCED_FACE ( 'NONE', ( #241, #38 ), #93, .T. ) ;
#107 = CARTESIAN_POINT ( 'NONE',  ( 4.740697848521522072E-14, 6.471548458233812510E-15, 13.57789828569527479 ) ) ;
#108 = PERSON ( 'UNSPECIFIED', 'UNSPECIFIED', 'UNSPECIFIED', ('UNSPECIFIED'), ('UNSPECIFIED'), ('UNSPECIFIED') ) ;
#109 = COORDINATED_UNIVERSAL_TIME_OFFSET ( 1, 0, .AHEAD. ) ;
#110 = DIRECTION ( 'NONE',  ( -3.491481338843133355E-15, 9.031770143711729009E-17, -1.000000000000000000 ) ) ;
#111 = ORIENTED_EDGE ( 'NONE', *, *, #2, .F. ) ;
#112 = CONICAL_SURFACE ( 'NONE', #85, 1.999999999999995337, 0.7853981633974516097 ) ;
#113 = DIRECTION ( 'NONE',  ( 3.491481338843133355E-15, -9.031770143711729009E-17, 1.000000000000000000 ) ) ;
#114 = ORIENTED_EDGE ( 'NONE', *, *, #155, .F. ) ;
#115 = CALENDAR_DATE ( 2021, 26, 11 ) ;
#116 = CARTESIAN_POINT ( 'NONE',  ( 3.341658333702677503E-30, 4.561713175658754023E-31, 9.570889858485973214E-16 ) ) ;
#117 = CARTESIAN_POINT ( 'NONE',  ( 4.885231259955590439E-14, 1.999999999999990452, 13.99185842870425134 ) ) ;
#118 = ADVANCED_FACE ( 'NONE', ( #88 ), #205, .T. ) ;
#119 = VERTEX_POINT ( 'NONE', #23 ) ;
#120 = ORIENTED_EDGE ( 'NONE', *, *, #220, .T. ) ;
#121 = EDGE_LOOP ( 'NONE', ( #97 ) ) ;
#122 = CIRCLE ( 'NONE', #20, 2.238999999999991442 ) ;
#123 = DATE_TIME_ROLE ( 'creation_date' ) ;
#124 = PERSON_AND_ORGANIZATION ( #108, #80 ) ;
#125 = AXIS2_PLACEMENT_3D ( 'NONE', #52, #113, #5 ) ;
#126 = LOCAL_TIME ( 11, 2, 55.00000000000000000, #46 ) ;
#127 = PLANE ( 'NONE',  #125 ) ;
#128 = SECURITY_CLASSIFICATION_LEVEL ( 'unclassified' ) ;
#129 = DIRECTION ( 'NONE',  ( -1.664122841393445068E-30, 1.000000000000000000, -4.766237249730898463E-16 ) ) ;
#130 = EDGE_LOOP ( 'NONE', ( #82 ) ) ;
#131 = CARTESIAN_POINT ( 'NONE',  ( 4.740697848521522072E-14, -1.226324563510972329E-15, 13.57789828569527302 ) ) ;
#132 = CIRCLE ( 'NONE', #225, 1.599999999999994982 ) ;
#133 = FACE_OUTER_BOUND ( 'NONE', #186, .T. ) ;
#134 = DIRECTION ( 'NONE',  ( 0.0000000000000000000, 1.000000000000000000, 0.0000000000000000000 ) ) ;
#135 = EDGE_LOOP ( 'NONE', ( #30 ) ) ;
#136 = EDGE_CURVE ( 'NONE', #119, #119, #69, .T. ) ;
#137 = UNCERTAINTY_MEASURE_WITH_UNIT (LENGTH_MEASURE( 1.000000000000000082E-05 ), #33, 'distance_accuracy_value', 'NONE');
#138 = VERTEX_POINT ( 'NONE', #76 ) ;
#139 = APPROVAL_PERSON_ORGANIZATION ( #236, #100, #157 ) ;
#140 = AXIS2_PLACEMENT_3D ( 'NONE', #224, #89, #49 ) ;
#141 = DIRECTION ( 'NONE',  ( 1.000000000000000000, 0.0000000000000000000, 0.0000000000000000000 ) ) ;
#142 = DIRECTION ( 'NONE',  ( 0.0000000000000000000, 1.000000000000000000, 0.0000000000000000000 ) ) ;
#143 = APPROVAL_ROLE ( '' ) ;
#144 = FACE_OUTER_BOUND ( 'NONE', #25, .T. ) ;
#145 = DATE_AND_TIME ( #164, #53 ) ;
#146 = LOCAL_TIME ( 11, 2, 55.00000000000000000, #68 ) ;
#147 = PRODUCT_DEFINITION ( 'UNKNOWN', '', #194, #98 ) ;
#148 = DIRECTION ( 'NONE',  ( 0.0000000000000000000, 1.000000000000000000, 0.0000000000000000000 ) ) ;
#149 = CARTESIAN_POINT ( 'NONE',  ( 4.740697848521522072E-14, 6.471548458233811721E-15, 13.57789828569527479 ) ) ;
#150 = PERSON_AND_ORGANIZATION ( #108, #80 ) ;
#151 = VERTEX_POINT ( 'NONE', #62 ) ;
#152 = CC_DESIGN_PERSON_AND_ORGANIZATION_ASSIGNMENT ( #206, #214, ( #177 ) ) ;
#153 = CARTESIAN_POINT ( 'NONE',  ( 4.740697848521522072E-14, 2.238999999999998103, 13.57789828569527302 ) ) ;
#154 = VERTEX_POINT ( 'NONE', #185 ) ;
#155 = EDGE_CURVE ( 'NONE', #81, #81, #237, .T. ) ;
#156 = LOCAL_TIME ( 11, 2, 55.00000000000000000, #109 ) ;
#157 = APPROVAL_ROLE ( '' ) ;
#158 = PERSON_AND_ORGANIZATION ( #108, #80 ) ;
#159 = ADVANCED_FACE ( 'NONE', ( #209, #144 ), #112, .T. ) ;
#160 = APPROVAL_PERSON_ORGANIZATION ( #39, #234, #143 ) ;
#161 = PERSON_AND_ORGANIZATION_ROLE ( 'design_owner' ) ;
#162 = DIRECTION ( 'NONE',  ( -3.491481338843133355E-15, 9.031770143711729009E-17, -1.000000000000000000 ) ) ;
#163 = AXIS2_PLACEMENT_3D ( 'NONE', #215, #207, #78 ) ;
#164 = CALENDAR_DATE ( 2021, 26, 11 ) ;
#165 = DIRECTION ( 'NONE',  ( -2.752557312210441443E-30, 1.000000000000000000, -7.747760053491798813E-16 ) ) ;
#166 = DIRECTION ( 'NONE',  ( 3.491481338843133355E-15, 4.766237249730898463E-16, 1.000000000000000000 ) ) ;
#167 = PLANE ( 'NONE',  #163 ) ;
#168 = CLOSED_SHELL ( 'NONE', ( #4, #36, #106, #118 ) ) ;
#169 = EDGE_LOOP ( 'NONE', ( #8 ) ) ;
#170 = FACE_OUTER_BOUND ( 'NONE', #130, .T. ) ;
#171 = EDGE_LOOP ( 'NONE', ( #120 ) ) ;
#172 = CC_DESIGN_DATE_AND_TIME_ASSIGNMENT ( #183, #74, ( #177 ) ) ;
#173 = APPROVAL_ROLE ( '' ) ;
#174 =( NAMED_UNIT ( * ) PLANE_ANGLE_UNIT ( ) SI_UNIT ( $, .RADIAN. ) );
#175 = DIRECTION ( 'NONE',  ( -3.491481338843133355E-15, -4.766237249730898463E-16, -1.000000000000000000 ) ) ;
#176 = DIRECTION ( 'NONE',  ( -1.634330904124944242E-30, 1.000000000000000000, -4.842350033432358727E-16 ) ) ;
#177 = SECURITY_CLASSIFICATION ( '', '', #128 ) ;
#178 = MECHANICAL_CONTEXT ( 'NONE', #182, 'mechanical' ) ;
#179 = APPLICATION_PROTOCOL_DEFINITION ( 'international standard', 'config_control_design', 1994, #31 ) ;
#180 = CC_DESIGN_PERSON_AND_ORGANIZATION_ASSIGNMENT ( #235, #77, ( #194 ) ) ;
#181 = DIRECTION ( 'NONE',  ( -3.491481338843133355E-15, 9.031770143711729009E-17, -1.000000000000000000 ) ) ;
#182 = APPLICATION_CONTEXT ( 'configuration controlled 3d designs of mechanical parts and assemblies' ) ;
#183 = DATE_AND_TIME ( #115, #156 ) ;
#184 = DIRECTION ( 'NONE',  ( 1.664122841393445068E-30, -1.000000000000000000, 4.766237249730898463E-16 ) ) ;
#185 = CARTESIAN_POINT ( 'NONE',  ( 1.396592535537253145E-15, 2.238999999999998547, 0.3999999999999999112 ) ) ;
#186 = EDGE_LOOP ( 'NONE', ( #111 ) ) ;
#187 = MANIFOLD_SOLID_BREP ( 'Corps-Déplacer/Copier1[1]', #1 ) ;
#188 = AXIS2_PLACEMENT_3D ( 'NONE', #223, #86, #141 ) ;
#189 = DIRECTION ( 'NONE',  ( -3.491481338843133355E-15, -4.766237249730898463E-16, -1.000000000000000000 ) ) ;
#190 = FACE_BOUND ( 'NONE', #135, .T. ) ;
#191 = EDGE_LOOP ( 'NONE', ( #101 ) ) ;
#192 = CC_DESIGN_PERSON_AND_ORGANIZATION_ASSIGNMENT ( #158, #26, ( #194 ) ) ;
#193 = ORIENTED_EDGE ( 'NONE', *, *, #51, .T. ) ;
#194 = PRODUCT_DEFINITION_FORMATION_WITH_SPECIFIED_SOURCE ( 'ANY', '', #96, .NOT_KNOWN. ) ;
#195 = DATE_AND_TIME ( #44, #126 ) ;
#196 = DIRECTION ( 'NONE',  ( 3.153425691349006731E-31, 1.000000000000000000, 9.031770143711729009E-17 ) ) ;
#197 = APPROVAL_DATE_TIME ( #219, #240 ) ;
#198 = AXIS2_PLACEMENT_3D ( 'NONE', #95, #17, #40 ) ;
#199 = CC_DESIGN_DATE_AND_TIME_ASSIGNMENT ( #195, #123, ( #147 ) ) ;
#200 = PLANE ( 'NONE',  #213 ) ;
#201 = APPROVAL_DATE_TIME ( #47, #100 ) ;
#202 = DIRECTION ( 'NONE',  ( -3.491481338843133355E-15, 9.031770143711729009E-17, -1.000000000000000000 ) ) ;
#203 = AXIS2_PLACEMENT_3D ( 'NONE', #227, #189, #129 ) ;
#204 = AXIS2_PLACEMENT_3D ( 'NONE', #7, #110, #196 ) ;
#205 = PLANE ( 'NONE',  #198 ) ;
#206 = PERSON_AND_ORGANIZATION ( #108, #80 ) ;
#207 = DIRECTION ( 'NONE',  ( -3.491481338843133355E-15, 9.031770143711729009E-17, -1.000000000000000000 ) ) ;
#208 = ORIENTED_EDGE ( 'NONE', *, *, #19, .F. ) ;
#209 = FACE_BOUND ( 'NONE', #169, .T. ) ;
#210 = APPROVAL_DATE_TIME ( #145, #234 ) ;
#211 = ADVANCED_FACE ( 'NONE', ( #243 ), #127, .T. ) ;
#212 = EDGE_LOOP ( 'NONE', ( #217 ) ) ;
#213 = AXIS2_PLACEMENT_3D ( 'NONE', #149, #18, #184 ) ;
#214 = PERSON_AND_ORGANIZATION_ROLE ( 'classification_officer' ) ;
#215 = CARTESIAN_POINT ( 'NONE',  ( 4.740697848521522072E-14, 2.238999999999998103, 13.57789828569527479 ) ) ;
#216 = CARTESIAN_POINT ( 'NONE',  ( 2.793185071074506684E-13, 1.599999999999987876, 80.00000000000000000 ) ) ;
#217 = ORIENTED_EDGE ( 'NONE', *, *, #136, .T. ) ;
#218 = CALENDAR_DATE ( 2021, 26, 11 ) ;
#219 = DATE_AND_TIME ( #13, #146 ) ;
#220 = EDGE_CURVE ( 'NONE', #29, #29, #122, .T. ) ;
#221 = COORDINATED_UNIVERSAL_TIME_OFFSET ( 1, 0, .AHEAD. ) ;
#222 = EDGE_CURVE ( 'NONE', #138, #138, #66, .T. ) ;
#223 = CARTESIAN_POINT ( 'NONE',  ( 0.0000000000000000000, 0.0000000000000000000, 0.0000000000000000000 ) ) ;
#224 = CARTESIAN_POINT ( 'NONE',  ( 4.885231259955590439E-14, -1.263712492114123682E-15, 13.99185842870425134 ) ) ;
#225 = AXIS2_PLACEMENT_3D ( 'NONE', #43, #181, #58 ) ;
#226 = LOCAL_TIME ( 11, 2, 55.00000000000000000, #221 ) ;
#227 = CARTESIAN_POINT ( 'NONE',  ( 0.0000000000000000000, 0.0000000000000000000, 0.0000000000000000000 ) ) ;
#228 = FACE_OUTER_BOUND ( 'NONE', #94, .T. ) ;
#229 = EDGE_LOOP ( 'NONE', ( #6 ) ) ;
#230 = CARTESIAN_POINT ( 'NONE',  ( 3.341658333702677503E-30, 4.561713175658754023E-31, 9.570889858485973214E-16 ) ) ;
#231 = ADVANCED_FACE ( 'NONE', ( #228, #54 ), #56, .T. ) ;
#232 = DIRECTION ( 'NONE',  ( 1.664122841393445068E-30, -1.000000000000000000, 4.766237249730898463E-16 ) ) ;
#233 = DIRECTION ( 'NONE',  ( -3.491481338843133355E-15, 9.031770143711729009E-17, -1.000000000000000000 ) ) ;
#234 = APPROVAL ( #242, 'UNSPECIFIED' ) ;
#235 = PERSON_AND_ORGANIZATION ( #108, #80 ) ;
#236 = PERSON_AND_ORGANIZATION ( #108, #80 ) ;
#237 = CIRCLE ( 'NONE', #140, 1.999999999999991784 ) ;
#238 = ADVANCED_FACE ( 'NONE', ( #190, #170 ), #48, .T. ) ;
#239 = AXIS2_PLACEMENT_3D ( 'NONE', #10, #233, #134 ) ;
#240 = APPROVAL ( #34, 'UNSPECIFIED' ) ;
#241 = FACE_OUTER_BOUND ( 'NONE', #191, .T. ) ;
#242 = APPROVAL_STATUS ( 'not_yet_approved' ) ;
#243 = FACE_OUTER_BOUND ( 'NONE', #28, .T. ) ;
ENDSEC;
END-ISO-10303-21;
