ISO-10303-21;
HEADER;
FILE_DESCRIPTION (( 'STEP AP203' ),
    '1' );
FILE_NAME ('321350.step',
    '2021-11-26T10:02:54',
    ( '' ),
    ( '' ),
    'SwSTEP 2.0',
    'SolidWorks 2019',
    '' );
FILE_SCHEMA (( 'CONFIG_CONTROL_DESIGN' ));
ENDSEC;

DATA;
#1 = PLANE ( 'NONE',  #129 ) ;
#2 = CARTESIAN_POINT ( 'NONE',  ( 4.743721560057798314E-14, 2.233999999999998209, 13.58655853973311700 ) ) ;
#3 = EDGE_CURVE ( 'NONE', #111, #111, #106, .T. ) ;
#4 = CARTESIAN_POINT ( 'NONE',  ( 4.743721560057798314E-14, -1.227106737749531822E-15, 13.58655853973311700 ) ) ;
#5 =( LENGTH_UNIT ( ) NAMED_UNIT ( * ) SI_UNIT ( .MILLI., .METRE. ) );
#6 = DIRECTION ( 'NONE',  ( -1.662517012823853764E-30, 1.000000000000000000, -4.761637973911416691E-16 ) ) ;
#7 = CLOSED_SHELL ( 'NONE', ( #192, #17, #58, #152, #239 ) ) ;
#8 = DATE_AND_TIME ( #124, #142 ) ;
#9 = DIRECTION ( 'NONE',  ( 3.153425691349006731E-31, 1.000000000000000000, 9.031770143711729009E-17 ) ) ;
#10 = DIRECTION ( 'NONE',  ( -1.662517012823854114E-30, 1.000000000000000000, -4.761637973911416691E-16 ) ) ;
#11 = CC_DESIGN_SECURITY_CLASSIFICATION ( #63, ( #125 ) ) ;
#12 = ORIENTED_EDGE ( 'NONE', *, *, #183, .T. ) ;
#13 = CARTESIAN_POINT ( 'NONE',  ( 0.0000000000000000000, 0.0000000000000000000, 0.0000000000000000000 ) ) ;
#14 = CARTESIAN_POINT ( 'NONE',  ( 0.0000000000000000000, 0.0000000000000000000, 0.0000000000000000000 ) ) ;
#15 = DIRECTION ( 'NONE',  ( -3.491481338843133355E-15, 9.031770143711729009E-17, -1.000000000000000000 ) ) ;
#16 =( NAMED_UNIT ( * ) PLANE_ANGLE_UNIT ( ) SI_UNIT ( $, .RADIAN. ) );
#17 = ADVANCED_FACE ( 'NONE', ( #57, #214 ), #133, .T. ) ;
#18 = CARTESIAN_POINT ( 'NONE',  ( 4.743721560057798945E-14, 6.469427307756366366E-15, 13.58655853973311878 ) ) ;
#19 = DATE_AND_TIME ( #49, #224 ) ;
#20 = COORDINATED_UNIVERSAL_TIME_OFFSET ( 1, 0, .AHEAD. ) ;
#21 = DIRECTION ( 'NONE',  ( -3.491481338843133355E-15, -4.761637973911416691E-16, -1.000000000000000000 ) ) ;
#22 = CC_DESIGN_DATE_AND_TIME_ASSIGNMENT ( #201, #96, ( #146 ) ) ;
#23 = AXIS2_PLACEMENT_3D ( 'NONE', #4, #64, #225 ) ;
#24 = CARTESIAN_POINT ( 'NONE',  ( 4.885231259955590439E-14, -1.263712492114123682E-15, 13.99185842870425134 ) ) ;
#25 = ORIENTED_EDGE ( 'NONE', *, *, #126, .T. ) ;
#26 = CC_DESIGN_DATE_AND_TIME_ASSIGNMENT ( #8, #207, ( #63 ) ) ;
#27 = APPROVAL_PERSON_ORGANIZATION ( #50, #32, #163 ) ;
#28 = VERTEX_POINT ( 'NONE', #92 ) ;
#29 = LOCAL_TIME ( 11, 2, 54.00000000000000000, #135 ) ;
#30 = FACE_OUTER_BOUND ( 'NONE', #55, .T. ) ;
#31 = MANIFOLD_SOLID_BREP ( 'Corps-Déplacer/Copier1[1]', #7 ) ;
#32 = APPROVAL ( #241, 'UNSPECIFIED' ) ;
#33 = CARTESIAN_POINT ( 'NONE',  ( 2.779219145719134403E-13, -7.189289034394536528E-15, 79.60000000000000853 ) ) ;
#34 = AXIS2_PLACEMENT_3D ( 'NONE', #107, #95, #213 ) ;
#35 = EDGE_LOOP ( 'NONE', ( #139 ) ) ;
#36 = MECHANICAL_CONTEXT ( 'NONE', #193, 'mechanical' ) ;
#37 = CIRCLE ( 'NONE', #165, 1.999999999999995337 ) ;
#38 = APPROVAL_DATE_TIME ( #97, #32 ) ;
#39 = AXIS2_PLACEMENT_3D ( 'NONE', #236, #123, #206 ) ;
#40 = EDGE_LOOP ( 'NONE', ( #155 ) ) ;
#41 = ORIENTED_EDGE ( 'NONE', *, *, #3, .F. ) ;
#42 = DIRECTION ( 'NONE',  ( -3.491481338843133355E-15, 9.031770143711729009E-17, -1.000000000000000000 ) ) ;
#43 = FACE_OUTER_BOUND ( 'NONE', #144, .T. ) ;
#44 = VERTEX_POINT ( 'NONE', #189 ) ;
#45 = CIRCLE ( 'NONE', #93, 2.233999999999991548 ) ;
#46 = CLOSED_SHELL ( 'NONE', ( #216, #136, #72, #210 ) ) ;
#47 = AXIS2_PLACEMENT_3D ( 'NONE', #48, #15, #159 ) ;
#48 = CARTESIAN_POINT ( 'NONE',  ( 4.743721560057798314E-14, -1.227106737749531822E-15, 13.58655853973311700 ) ) ;
#49 = CALENDAR_DATE ( 2021, 26, 11 ) ;
#50 = PERSON_AND_ORGANIZATION ( #173, #94 ) ;
#51 = DIRECTION ( 'NONE',  ( -1.662517012823853764E-30, 1.000000000000000000, -4.761637973911416691E-16 ) ) ;
#52 = EDGE_CURVE ( 'NONE', #28, #28, #169, .T. ) ;
#53 = EDGE_LOOP ( 'NONE', ( #91 ) ) ;
#54 = EDGE_CURVE ( 'NONE', #44, #44, #118, .T. ) ;
#55 = EDGE_LOOP ( 'NONE', ( #161 ) ) ;
#56 = CARTESIAN_POINT ( 'NONE',  ( 2.779219145719134403E-13, -7.189289034394536528E-15, 79.60000000000000853 ) ) ;
#57 = FACE_BOUND ( 'NONE', #116, .T. ) ;
#58 = ADVANCED_FACE ( 'NONE', ( #105, #181 ), #69, .T. ) ;
#59 = DIRECTION ( 'NONE',  ( 1.662517012823854114E-30, -1.000000000000000000, 4.761637973911416691E-16 ) ) ;
#60 = PERSON_AND_ORGANIZATION ( #173, #94 ) ;
#61 = AXIS2_PLACEMENT_3D ( 'NONE', #237, #121, #198 ) ;
#62 = PERSON_AND_ORGANIZATION_ROLE ( 'design_owner' ) ;
#63 = SECURITY_CLASSIFICATION ( '', '', #230 ) ;
#64 = DIRECTION ( 'NONE',  ( -3.491481338843133355E-15, 9.031770143711729009E-17, -1.000000000000000000 ) ) ;
#65 = CARTESIAN_POINT ( 'NONE',  ( 4.743721560057798314E-14, 2.233999999999998209, 13.58655853973311700 ) ) ;
#66 = PERSON_AND_ORGANIZATION ( #173, #94 ) ;
#67 = CALENDAR_DATE ( 2021, 26, 11 ) ;
#68 = DIRECTION ( 'NONE',  ( -3.491481338843133355E-15, -4.761637973911416691E-16, -1.000000000000000000 ) ) ;
#69 = CYLINDRICAL_SURFACE ( 'NONE', #34, 1.999999999999993561 ) ;
#70 = DIRECTION ( 'NONE',  ( -3.491481338843133355E-15, 9.031770143711729009E-17, -1.000000000000000000 ) ) ;
#71 = AXIS2_PLACEMENT_3D ( 'NONE', #86, #21, #6 ) ;
#72 = ADVANCED_FACE ( 'NONE', ( #43, #219 ), #89, .T. ) ;
#73 = ORIENTED_EDGE ( 'NONE', *, *, #52, .T. ) ;
#74 = PRODUCT_DEFINITION_SHAPE ( 'NONE', 'NONE',  #146 ) ;
#75 = APPROVAL_PERSON_ORGANIZATION ( #212, #90, #88 ) ;
#76 = EDGE_LOOP ( 'NONE', ( #87 ) ) ;
#77 = DIRECTION ( 'NONE',  ( 3.491481338843133355E-15, 4.761637973911416691E-16, 1.000000000000000000 ) ) ;
#78 = CC_DESIGN_PERSON_AND_ORGANIZATION_ASSIGNMENT ( #199, #83, ( #146 ) ) ;
#79 = AXIS2_PLACEMENT_3D ( 'NONE', #186, #197, #9 ) ;
#80 =( NAMED_UNIT ( * ) SI_UNIT ( $, .STERADIAN. ) SOLID_ANGLE_UNIT ( ) );
#81 = APPROVAL_DATE_TIME ( #98, #90 ) ;
#82 = CC_DESIGN_APPROVAL ( #90, ( #63 ) ) ;
#83 = PERSON_AND_ORGANIZATION_ROLE ( 'creator' ) ;
#84 = EDGE_LOOP ( 'NONE', ( #130 ) ) ;
#85 = CALENDAR_DATE ( 2021, 26, 11 ) ;
#86 = CARTESIAN_POINT ( 'NONE',  ( -1.665060574347006571E-30, 2.003059892324147828, -4.768923023654788277E-16 ) ) ;
#87 = ORIENTED_EDGE ( 'NONE', *, *, #183, .F. ) ;
#88 = APPROVAL_ROLE ( '' ) ;
#89 = CONICAL_SURFACE ( 'NONE', #184, 2.003059892324147828, 0.5235987755982979275 ) ;
#90 = APPROVAL ( #209, 'UNSPECIFIED' ) ;
#91 = ORIENTED_EDGE ( 'NONE', *, *, #240, .T. ) ;
#92 = CARTESIAN_POINT ( 'NONE',  ( 2.793185071074506684E-13, 1.599999999999987876, 80.00000000000000000 ) ) ;
#93 = AXIS2_PLACEMENT_3D ( 'NONE', #18, #120, #172 ) ;
#94 = ORGANIZATION ( 'UNSPECIFIED', 'UNSPECIFIED', '' ) ;
#95 = DIRECTION ( 'NONE',  ( -3.491481338843133355E-15, 9.031770143711729009E-17, -1.000000000000000000 ) ) ;
#96 = DATE_TIME_ROLE ( 'creation_date' ) ;
#97 = DATE_AND_TIME ( #170, #164 ) ;
#98 = DATE_AND_TIME ( #85, #29 ) ;
#99 = CONICAL_SURFACE ( 'NONE', #23, 2.233999999999999542, 0.5235987755982931535 ) ;
#100 = APPROVAL_ROLE ( '' ) ;
#101 = LOCAL_TIME ( 11, 2, 54.00000000000000000, #20 ) ;
#102 = CC_DESIGN_PERSON_AND_ORGANIZATION_ASSIGNMENT ( #205, #103, ( #63 ) ) ;
#103 = PERSON_AND_ORGANIZATION_ROLE ( 'classification_officer' ) ;
#104 = FACE_OUTER_BOUND ( 'NONE', #150, .T. ) ;
#105 = FACE_OUTER_BOUND ( 'NONE', #53, .T. ) ;
#106 = CIRCLE ( 'NONE', #182, 2.003059892324147828 ) ;
#107 = CARTESIAN_POINT ( 'NONE',  ( 0.0000000000000000000, 0.0000000000000000000, 0.0000000000000000000 ) ) ;
#108 = CC_DESIGN_PERSON_AND_ORGANIZATION_ASSIGNMENT ( #202, #62, ( #166 ) ) ;
#109 = AXIS2_PLACEMENT_3D ( 'NONE', #13, #156, #131 ) ;
#110 = DIRECTION ( 'NONE',  ( 0.0000000000000000000, 1.000000000000000000, 0.0000000000000000000 ) ) ;
#111 = VERTEX_POINT ( 'NONE', #188 ) ;
#112 = AXIS2_PLACEMENT_3D ( 'NONE', #24, #70, #211 ) ;
#113 = CYLINDRICAL_SURFACE ( 'NONE', #217, 2.233999999999994657 ) ;
#114 = FACE_OUTER_BOUND ( 'NONE', #174, .T. ) ;
#115 = CARTESIAN_POINT ( 'NONE',  ( 3.330121148694013141E-30, 4.541576992819019634E-31, 9.537846047309576554E-16 ) ) ;
#116 = EDGE_LOOP ( 'NONE', ( #73 ) ) ;
#117 = UNCERTAINTY_MEASURE_WITH_UNIT (LENGTH_MEASURE( 1.000000000000000082E-05 ), #5, 'distance_accuracy_value', 'NONE');
#118 = CIRCLE ( 'NONE', #112, 1.999999999999991784 ) ;
#119 = CARTESIAN_POINT ( 'NONE',  ( 1.396592535537253145E-15, 2.233999999999997765, 0.3999999999999999112 ) ) ;
#120 = DIRECTION ( 'NONE',  ( -3.491481338843133355E-15, -4.761637973911416691E-16, -1.000000000000000000 ) ) ;
#121 = DIRECTION ( 'NONE',  ( -3.491481338843133355E-15, -4.761637973911416691E-16, -1.000000000000000000 ) ) ;
#122 = DIRECTION ( 'NONE',  ( -3.153425691349006731E-31, -1.000000000000000000, -9.031770143711729009E-17 ) ) ;
#123 = DIRECTION ( 'NONE',  ( -3.491481338843133355E-15, 9.031770143711729009E-17, -1.000000000000000000 ) ) ;
#124 = CALENDAR_DATE ( 2021, 26, 11 ) ;
#125 = PRODUCT_DEFINITION_FORMATION_WITH_SPECIFIED_SOURCE ( 'ANY', '', #166, .NOT_KNOWN. ) ;
#126 = EDGE_CURVE ( 'NONE', #200, #200, #231, .T. ) ;
#127 = AXIS2_PLACEMENT_3D ( 'NONE', #33, #191, #151 ) ;
#128 = PLANE ( 'NONE',  #79 ) ;
#129 = AXIS2_PLACEMENT_3D ( 'NONE', #229, #162, #122 ) ;
#130 = ORIENTED_EDGE ( 'NONE', *, *, #143, .F. ) ;
#131 = DIRECTION ( 'NONE',  ( 1.000000000000000000, 0.0000000000000000000, 0.0000000000000000000 ) ) ;
#132 = FACE_BOUND ( 'NONE', #35, .T. ) ;
#133 = CONICAL_SURFACE ( 'NONE', #127, 1.999999999999995337, 0.7853981633974516097 ) ;
#134 = APPLICATION_PROTOCOL_DEFINITION ( 'international standard', 'config_control_design', 1994, #220 ) ;
#135 = COORDINATED_UNIVERSAL_TIME_OFFSET ( 1, 0, .AHEAD. ) ;
#136 = ADVANCED_FACE ( 'NONE', ( #215, #30 ), #113, .T. ) ;
#137 = ORIENTED_EDGE ( 'NONE', *, *, #3, .T. ) ;
#138 = PERSON_AND_ORGANIZATION_ROLE ( 'design_supplier' ) ;
#139 = ORIENTED_EDGE ( 'NONE', *, *, #54, .T. ) ;
#140 =( GEOMETRIC_REPRESENTATION_CONTEXT ( 3 ) GLOBAL_UNCERTAINTY_ASSIGNED_CONTEXT ( ( #117 ) ) GLOBAL_UNIT_ASSIGNED_CONTEXT ( ( #5, #16, #80 ) ) REPRESENTATION_CONTEXT ( 'NONE', 'WORKASPACE' ) );
#141 = VERTEX_POINT ( 'NONE', #2 ) ;
#142 = LOCAL_TIME ( 11, 2, 54.00000000000000000, #179 ) ;
#143 = EDGE_CURVE ( 'NONE', #227, #227, #45, .T. ) ;
#144 = EDGE_LOOP ( 'NONE', ( #25 ) ) ;
#145 = APPROVAL_PERSON_ORGANIZATION ( #226, #147, #100 ) ;
#146 = PRODUCT_DEFINITION ( 'UNKNOWN', '', #125, #195 ) ;
#147 = APPROVAL ( #154, 'UNSPECIFIED' ) ;
#148 = CARTESIAN_POINT ( 'NONE',  ( 4.743721560057798945E-14, 6.469427307756365577E-15, 13.58655853973311878 ) ) ;
#149 = DIRECTION ( 'NONE',  ( 3.491481338843133355E-15, 4.761637973911416691E-16, 1.000000000000000000 ) ) ;
#150 = EDGE_LOOP ( 'NONE', ( #137 ) ) ;
#151 = DIRECTION ( 'NONE',  ( 0.0000000000000000000, 1.000000000000000000, 0.0000000000000000000 ) ) ;
#152 = ADVANCED_FACE ( 'NONE', ( #132, #175 ), #99, .T. ) ;
#153 = DIRECTION ( 'NONE',  ( 1.662517012823853764E-30, -1.000000000000000000, 4.761637973911416691E-16 ) ) ;
#154 = APPROVAL_STATUS ( 'not_yet_approved' ) ;
#155 = ORIENTED_EDGE ( 'NONE', *, *, #240, .F. ) ;
#156 = DIRECTION ( 'NONE',  ( 0.0000000000000000000, 0.0000000000000000000, 1.000000000000000000 ) ) ;
#157 = FACE_OUTER_BOUND ( 'NONE', #185, .T. ) ;
#158 = APPROVAL_DATE_TIME ( #19, #147 ) ;
#159 = DIRECTION ( 'NONE',  ( 0.0000000000000000000, 1.000000000000000000, 0.0000000000000000000 ) ) ;
#160 = COORDINATED_UNIVERSAL_TIME_OFFSET ( 1, 0, .AHEAD. ) ;
#161 = ORIENTED_EDGE ( 'NONE', *, *, #126, .F. ) ;
#162 = DIRECTION ( 'NONE',  ( 3.491481338843133355E-15, -9.031770143711729009E-17, 1.000000000000000000 ) ) ;
#163 = APPROVAL_ROLE ( '' ) ;
#164 = LOCAL_TIME ( 11, 2, 54.00000000000000000, #160 ) ;
#165 = AXIS2_PLACEMENT_3D ( 'NONE', #56, #42, #110 ) ;
#166 = PRODUCT ( '321350', '321350', '', ( #36 ) ) ;
#167 = DIRECTION ( 'NONE',  ( -3.491481338843133355E-15, -4.761637973911416691E-16, -1.000000000000000000 ) ) ;
#168 = CC_DESIGN_APPROVAL ( #147, ( #146 ) ) ;
#169 = CIRCLE ( 'NONE', #39, 1.599999999999994982 ) ;
#170 = CALENDAR_DATE ( 2021, 26, 11 ) ;
#171 = ORIENTED_EDGE ( 'NONE', *, *, #54, .F. ) ;
#172 = DIRECTION ( 'NONE',  ( -2.758717914968298179E-30, 1.000000000000000000, -7.765100608669712092E-16 ) ) ;
#173 = PERSON ( 'UNSPECIFIED', 'UNSPECIFIED', 'UNSPECIFIED', ('UNSPECIFIED'), ('UNSPECIFIED'), ('UNSPECIFIED') ) ;
#174 = EDGE_LOOP ( 'NONE', ( #12 ) ) ;
#175 = FACE_OUTER_BOUND ( 'NONE', #76, .T. ) ;
#176 = PERSON_AND_ORGANIZATION_ROLE ( 'creator' ) ;
#177 = COORDINATED_UNIVERSAL_TIME_OFFSET ( 1, 0, .AHEAD. ) ;
#178 = CC_DESIGN_PERSON_AND_ORGANIZATION_ASSIGNMENT ( #66, #138, ( #125 ) ) ;
#179 = COORDINATED_UNIVERSAL_TIME_OFFSET ( 1, 0, .AHEAD. ) ;
#180 = PLANE ( 'NONE',  #71 ) ;
#181 = FACE_OUTER_BOUND ( 'NONE', #222, .T. ) ;
#182 = AXIS2_PLACEMENT_3D ( 'NONE', #115, #167, #10 ) ;
#183 = EDGE_CURVE ( 'NONE', #141, #141, #203, .T. ) ;
#184 = AXIS2_PLACEMENT_3D ( 'NONE', #196, #149, #59 ) ;
#185 = EDGE_LOOP ( 'NONE', ( #208 ) ) ;
#186 = CARTESIAN_POINT ( 'NONE',  ( 4.743721560057798945E-14, 2.233999999999998209, 13.58655853973311878 ) ) ;
#187 = MANIFOLD_SOLID_BREP ( 'Corps-Déplacer/Copier1[2]', #46 ) ;
#188 = CARTESIAN_POINT ( 'NONE',  ( 0.0000000000000000000, 2.003059892324147828, 0.0000000000000000000 ) ) ;
#189 = CARTESIAN_POINT ( 'NONE',  ( 4.885231259955590439E-14, 1.999999999999990452, 13.99185842870425134 ) ) ;
#190 = AXIS2_PLACEMENT_3D ( 'NONE', #148, #77, #153 ) ;
#191 = DIRECTION ( 'NONE',  ( -3.491481338843133355E-15, 9.031770143711729009E-17, -1.000000000000000000 ) ) ;
#192 = ADVANCED_FACE ( 'NONE', ( #157 ), #1, .T. ) ;
#193 = APPLICATION_CONTEXT ( 'configuration controlled 3d designs of mechanical parts and assemblies' ) ;
#194 = EDGE_LOOP ( 'NONE', ( #242 ) ) ;
#195 = DESIGN_CONTEXT ( 'detailed design', #220, 'design' ) ;
#196 = CARTESIAN_POINT ( 'NONE',  ( 3.330121148694013141E-30, 4.541576992819019634E-31, 9.537846047309576554E-16 ) ) ;
#197 = DIRECTION ( 'NONE',  ( -3.491481338843133355E-15, 9.031770143711729009E-17, -1.000000000000000000 ) ) ;
#198 = DIRECTION ( 'NONE',  ( -1.637988762012422402E-30, 1.000000000000000000, -4.853187880418556253E-16 ) ) ;
#199 = PERSON_AND_ORGANIZATION ( #173, #94 ) ;
#200 = VERTEX_POINT ( 'NONE', #119 ) ;
#201 = DATE_AND_TIME ( #67, #101 ) ;
#202 = PERSON_AND_ORGANIZATION ( #173, #94 ) ;
#203 = CIRCLE ( 'NONE', #47, 2.233999999999999542 ) ;
#204 = CC_DESIGN_APPROVAL ( #32, ( #125 ) ) ;
#205 = PERSON_AND_ORGANIZATION ( #173, #94 ) ;
#206 = DIRECTION ( 'NONE',  ( 0.0000000000000000000, 1.000000000000000000, 0.0000000000000000000 ) ) ;
#207 = DATE_TIME_ROLE ( 'classification_date' ) ;
#208 = ORIENTED_EDGE ( 'NONE', *, *, #52, .F. ) ;
#209 = APPROVAL_STATUS ( 'not_yet_approved' ) ;
#210 = ADVANCED_FACE ( 'NONE', ( #104 ), #180, .T. ) ;
#211 = DIRECTION ( 'NONE',  ( 0.0000000000000000000, 1.000000000000000000, 0.0000000000000000000 ) ) ;
#212 = PERSON_AND_ORGANIZATION ( #173, #94 ) ;
#213 = DIRECTION ( 'NONE',  ( 3.153425691349006731E-31, 1.000000000000000000, 9.031770143711729009E-17 ) ) ;
#214 = FACE_OUTER_BOUND ( 'NONE', #40, .T. ) ;
#215 = FACE_OUTER_BOUND ( 'NONE', #194, .T. ) ;
#216 = ADVANCED_FACE ( 'NONE', ( #233 ), #238, .T. ) ;
#217 = AXIS2_PLACEMENT_3D ( 'NONE', #14, #68, #51 ) ;
#218 = EDGE_LOOP ( 'NONE', ( #41 ) ) ;
#219 = FACE_BOUND ( 'NONE', #218, .T. ) ;
#220 = APPLICATION_CONTEXT ( 'configuration controlled 3d designs of mechanical parts and assemblies' ) ;
#221 = PRODUCT_RELATED_PRODUCT_CATEGORY ( 'detail', '', ( #166 ) ) ;
#222 = EDGE_LOOP ( 'NONE', ( #171 ) ) ;
#223 = CARTESIAN_POINT ( 'NONE',  ( 2.779219145719134403E-13, 1.999999999999988010, 79.60000000000000853 ) ) ;
#224 = LOCAL_TIME ( 11, 2, 54.00000000000000000, #177 ) ;
#225 = DIRECTION ( 'NONE',  ( 0.0000000000000000000, 1.000000000000000000, 0.0000000000000000000 ) ) ;
#226 = PERSON_AND_ORGANIZATION ( #173, #94 ) ;
#227 = VERTEX_POINT ( 'NONE', #65 ) ;
#228 = SHAPE_DEFINITION_REPRESENTATION ( #74, #234 ) ;
#229 = CARTESIAN_POINT ( 'NONE',  ( 2.793185071074506684E-13, -7.225416114969383207E-15, 80.00000000000000000 ) ) ;
#230 = SECURITY_CLASSIFICATION_LEVEL ( 'unclassified' ) ;
#231 = CIRCLE ( 'NONE', #61, 2.233999999999997765 ) ;
#232 = VERTEX_POINT ( 'NONE', #223 ) ;
#233 = FACE_OUTER_BOUND ( 'NONE', #84, .T. ) ;
#234 = ADVANCED_BREP_SHAPE_REPRESENTATION ( '321350', ( #31, #187, #109 ), #140 ) ;
#235 = CC_DESIGN_PERSON_AND_ORGANIZATION_ASSIGNMENT ( #60, #176, ( #125 ) ) ;
#236 = CARTESIAN_POINT ( 'NONE',  ( 2.793185071074506684E-13, -7.225416114969383207E-15, 80.00000000000000000 ) ) ;
#237 = CARTESIAN_POINT ( 'NONE',  ( 1.396592535537256695E-15, 1.904655189564571607E-16, 0.4000000000000010214 ) ) ;
#238 = PLANE ( 'NONE',  #190 ) ;
#239 = ADVANCED_FACE ( 'NONE', ( #114 ), #128, .T. ) ;
#240 = EDGE_CURVE ( 'NONE', #232, #232, #37, .T. ) ;
#241 = APPROVAL_STATUS ( 'not_yet_approved' ) ;
#242 = ORIENTED_EDGE ( 'NONE', *, *, #143, .T. ) ;
#243 = APPLICATION_PROTOCOL_DEFINITION ( 'international standard', 'config_control_design', 1994, #193 ) ;
ENDSEC;
END-ISO-10303-21;
