ISO-10303-21;
HEADER;
FILE_DESCRIPTION (( 'STEP AP203' ),
    '1' );
FILE_NAME ('321349.step',
    '2021-11-26T10:02:53',
    ( '' ),
    ( '' ),
    'SwSTEP 2.0',
    'SolidWorks 2019',
    '' );
FILE_SCHEMA (( 'CONFIG_CONTROL_DESIGN' ));
ENDSEC;

DATA;
#1 = ADVANCED_FACE ( 'NONE', ( #155, #182 ), #231, .T. ) ;
#2 = PERSON_AND_ORGANIZATION ( #183, #186 ) ;
#3 = CIRCLE ( 'NONE', #159, 2.228999999999998760 ) ;
#4 = ORIENTED_EDGE ( 'NONE', *, *, #136, .F. ) ;
#5 = ADVANCED_FACE ( 'NONE', ( #137, #203 ), #180, .T. ) ;
#6 = AXIS2_PLACEMENT_3D ( 'NONE', #144, #228, #166 ) ;
#7 = EDGE_LOOP ( 'NONE', ( #131 ) ) ;
#8 = FACE_OUTER_BOUND ( 'NONE', #201, .T. ) ;
#9 = COORDINATED_UNIVERSAL_TIME_OFFSET ( 1, 0, .AHEAD. ) ;
#10 = DIRECTION ( 'NONE',  ( 0.0000000000000000000, 1.000000000000000000, 0.0000000000000000000 ) ) ;
#11 = PERSON_AND_ORGANIZATION ( #183, #186 ) ;
#12 = DIRECTION ( 'NONE',  ( -1.660913230103404430E-30, 1.000000000000000000, -4.757044557636762305E-16 ) ) ;
#13 = DATE_AND_TIME ( #158, #192 ) ;
#14 = DIRECTION ( 'NONE',  ( -3.491481338843133355E-15, -4.757044557636762305E-16, -1.000000000000000000 ) ) ;
#15 = PERSON_AND_ORGANIZATION_ROLE ( 'classification_officer' ) ;
#16 = CC_DESIGN_PERSON_AND_ORGANIZATION_ASSIGNMENT ( #2, #120, ( #193 ) ) ;
#17 = PERSON_AND_ORGANIZATION ( #183, #186 ) ;
#18 = CC_DESIGN_PERSON_AND_ORGANIZATION_ASSIGNMENT ( #40, #33, ( #229 ) ) ;
#19 = DIRECTION ( 'NONE',  ( -1.660913230103404079E-30, 1.000000000000000000, -4.757044557636762305E-16 ) ) ;
#20 = ADVANCED_FACE ( 'NONE', ( #81, #84 ), #94, .T. ) ;
#21 = EDGE_LOOP ( 'NONE', ( #195 ) ) ;
#22 = PERSON_AND_ORGANIZATION ( #183, #186 ) ;
#23 = ORIENTED_EDGE ( 'NONE', *, *, #241, .F. ) ;
#24 = VERTEX_POINT ( 'NONE', #78 ) ;
#25 = CIRCLE ( 'NONE', #211, 2.228999999999991655 ) ;
#26 = ORIENTED_EDGE ( 'NONE', *, *, #115, .F. ) ;
#27 = CARTESIAN_POINT ( 'NONE',  ( 1.396592535537253145E-15, 2.228999999999998760, 0.3999999999999999112 ) ) ;
#28 = ORIENTED_EDGE ( 'NONE', *, *, #240, .F. ) ;
#29 = APPROVAL_ROLE ( '' ) ;
#30 = ORIENTED_EDGE ( 'NONE', *, *, #145, .F. ) ;
#31 = MECHANICAL_CONTEXT ( 'NONE', #242, 'mechanical' ) ;
#32 = CARTESIAN_POINT ( 'NONE',  ( 4.746745271594075187E-14, 2.228999999999998316, 13.59521879377095743 ) ) ;
#33 = PERSON_AND_ORGANIZATION_ROLE ( 'design_supplier' ) ;
#34 = CARTESIAN_POINT ( 'NONE',  ( 4.746745271594075818E-14, -1.227888911988091315E-15, 13.59521879377095921 ) ) ;
#35 = PRODUCT_DEFINITION_SHAPE ( 'NONE', 'NONE',  #193 ) ;
#36 = DIRECTION ( 'NONE',  ( 0.0000000000000000000, 1.000000000000000000, 0.0000000000000000000 ) ) ;
#37 = DATE_TIME_ROLE ( 'classification_date' ) ;
#38 = PLANE ( 'NONE',  #112 ) ;
#39 = DIRECTION ( 'NONE',  ( 3.153425691349006731E-31, 1.000000000000000000, 9.031770143711729009E-17 ) ) ;
#40 = PERSON_AND_ORGANIZATION ( #183, #186 ) ;
#41 = DIRECTION ( 'NONE',  ( -3.491481338843133355E-15, -4.757044557636762305E-16, -1.000000000000000000 ) ) ;
#42 = LOCAL_TIME ( 11, 2, 53.00000000000000000, #9 ) ;
#43 = AXIS2_PLACEMENT_3D ( 'NONE', #205, #157, #36 ) ;
#44 = CC_DESIGN_PERSON_AND_ORGANIZATION_ASSIGNMENT ( #71, #140, ( #229 ) ) ;
#45 = CIRCLE ( 'NONE', #198, 1.998059892324149045 ) ;
#46 = ORIENTED_EDGE ( 'NONE', *, *, #136, .T. ) ;
#47 = APPLICATION_PROTOCOL_DEFINITION ( 'international standard', 'config_control_design', 1994, #242 ) ;
#48 = LOCAL_TIME ( 11, 2, 53.00000000000000000, #122 ) ;
#49 =( LENGTH_UNIT ( ) NAMED_UNIT ( * ) SI_UNIT ( .MILLI., .METRE. ) );
#50 =( GEOMETRIC_REPRESENTATION_CONTEXT ( 3 ) GLOBAL_UNCERTAINTY_ASSIGNED_CONTEXT ( ( #117 ) ) GLOBAL_UNIT_ASSIGNED_CONTEXT ( ( #49, #129, #216 ) ) REPRESENTATION_CONTEXT ( 'NONE', 'WORKASPACE' ) );
#51 = CARTESIAN_POINT ( 'NONE',  ( 0.0000000000000000000, 0.0000000000000000000, 0.0000000000000000000 ) ) ;
#52 = DIRECTION ( 'NONE',  ( -1.641663030208950418E-30, 1.000000000000000000, -4.864074349419044548E-16 ) ) ;
#53 = COORDINATED_UNIVERSAL_TIME_OFFSET ( 1, 0, .AHEAD. ) ;
#54 = DIRECTION ( 'NONE',  ( 1.660913230103404079E-30, -1.000000000000000000, 4.757044557636762305E-16 ) ) ;
#55 = PRODUCT ( '321349', '321349', '', ( #31 ) ) ;
#56 = DIRECTION ( 'NONE',  ( 0.0000000000000000000, 1.000000000000000000, 0.0000000000000000000 ) ) ;
#57 = DIRECTION ( 'NONE',  ( -3.491481338843133355E-15, 9.031770143711729009E-17, -1.000000000000000000 ) ) ;
#58 = DIRECTION ( 'NONE',  ( -3.491481338843133355E-15, 9.031770143711729009E-17, -1.000000000000000000 ) ) ;
#59 = AXIS2_PLACEMENT_3D ( 'NONE', #219, #160, #223 ) ;
#60 = CARTESIAN_POINT ( 'NONE',  ( 3.318604109700162428E-30, 4.521504223256404233E-31, 9.504859936612887656E-16 ) ) ;
#61 = ADVANCED_FACE ( 'NONE', ( #104 ), #184, .T. ) ;
#62 = APPROVAL ( #92, 'UNSPECIFIED' ) ;
#63 = APPROVAL ( #82, 'UNSPECIFIED' ) ;
#64 = EDGE_LOOP ( 'NONE', ( #76 ) ) ;
#65 = APPROVAL_PERSON_ORGANIZATION ( #17, #189, #80 ) ;
#66 = FACE_OUTER_BOUND ( 'NONE', #154, .T. ) ;
#67 = CIRCLE ( 'NONE', #243, 1.999999999999995337 ) ;
#68 = PERSON_AND_ORGANIZATION ( #183, #186 ) ;
#69 = ADVANCED_FACE ( 'NONE', ( #235 ), #121, .T. ) ;
#70 = DIRECTION ( 'NONE',  ( 0.0000000000000000000, 1.000000000000000000, 0.0000000000000000000 ) ) ;
#71 = PERSON_AND_ORGANIZATION ( #183, #186 ) ;
#72 = DIRECTION ( 'NONE',  ( -3.491481338843133355E-15, 9.031770143711729009E-17, -1.000000000000000000 ) ) ;
#73 = LOCAL_TIME ( 11, 2, 53.00000000000000000, #114 ) ;
#74 = CARTESIAN_POINT ( 'NONE',  ( 2.779219145719134403E-13, 1.999999999999988010, 79.60000000000000853 ) ) ;
#75 = AXIS2_PLACEMENT_3D ( 'NONE', #221, #88, #54 ) ;
#76 = ORIENTED_EDGE ( 'NONE', *, *, #87, .F. ) ;
#77 = EDGE_LOOP ( 'NONE', ( #175 ) ) ;
#78 = CARTESIAN_POINT ( 'NONE',  ( 4.885231259955590439E-14, 1.999999999999990452, 13.99185842870425134 ) ) ;
#79 = FACE_OUTER_BOUND ( 'NONE', #215, .T. ) ;
#80 = APPROVAL_ROLE ( '' ) ;
#81 = FACE_BOUND ( 'NONE', #77, .T. ) ;
#82 = APPROVAL_STATUS ( 'not_yet_approved' ) ;
#83 = EDGE_CURVE ( 'NONE', #118, #118, #217, .T. ) ;
#84 = FACE_OUTER_BOUND ( 'NONE', #64, .T. ) ;
#85 = CARTESIAN_POINT ( 'NONE',  ( 2.779219145719134403E-13, -7.189289034394536528E-15, 79.60000000000000853 ) ) ;
#86 = COORDINATED_UNIVERSAL_TIME_OFFSET ( 1, 0, .AHEAD. ) ;
#87 = EDGE_CURVE ( 'NONE', #202, #202, #172, .T. ) ;
#88 = DIRECTION ( 'NONE',  ( 3.491481338843133355E-15, 4.757044557636762305E-16, 1.000000000000000000 ) ) ;
#89 = CALENDAR_DATE ( 2021, 26, 11 ) ;
#90 = ADVANCED_FACE ( 'NONE', ( #66, #79 ), #125, .T. ) ;
#91 = ORIENTED_EDGE ( 'NONE', *, *, #83, .T. ) ;
#92 = APPROVAL_STATUS ( 'not_yet_approved' ) ;
#93 = CLOSED_SHELL ( 'NONE', ( #69, #1, #90, #20, #173 ) ) ;
#94 = CONICAL_SURFACE ( 'NONE', #43, 2.228999999999999648, 0.5235987755982923764 ) ;
#95 = ORIENTED_EDGE ( 'NONE', *, *, #241, .T. ) ;
#96 = EDGE_LOOP ( 'NONE', ( #30 ) ) ;
#97 = DATE_AND_TIME ( #170, #73 ) ;
#98 = CC_DESIGN_PERSON_AND_ORGANIZATION_ASSIGNMENT ( #100, #196, ( #55 ) ) ;
#99 = ORIENTED_EDGE ( 'NONE', *, *, #145, .T. ) ;
#100 = PERSON_AND_ORGANIZATION ( #183, #186 ) ;
#101 = AXIS2_PLACEMENT_3D ( 'NONE', #51, #214, #116 ) ;
#102 = DIRECTION ( 'NONE',  ( -3.491481338843133355E-15, 9.031770143711729009E-17, -1.000000000000000000 ) ) ;
#103 = DIRECTION ( 'NONE',  ( 3.153425691349006731E-31, 1.000000000000000000, 9.031770143711729009E-17 ) ) ;
#104 = FACE_OUTER_BOUND ( 'NONE', #176, .T. ) ;
#105 = CC_DESIGN_DATE_AND_TIME_ASSIGNMENT ( #135, #181, ( #193 ) ) ;
#106 = CARTESIAN_POINT ( 'NONE',  ( 4.746745271594075187E-14, 6.467306157278916277E-15, 13.59521879377095743 ) ) ;
#107 = DIRECTION ( 'NONE',  ( -3.491481338843133355E-15, 9.031770143711729009E-17, -1.000000000000000000 ) ) ;
#108 = CALENDAR_DATE ( 2021, 26, 11 ) ;
#109 = FACE_OUTER_BOUND ( 'NONE', #197, .T. ) ;
#110 = CIRCLE ( 'NONE', #127, 1.999999999999991784 ) ;
#111 = AXIS2_PLACEMENT_3D ( 'NONE', #139, #102, #56 ) ;
#112 = AXIS2_PLACEMENT_3D ( 'NONE', #106, #162, #187 ) ;
#113 = LOCAL_TIME ( 11, 2, 53.00000000000000000, #86 ) ;
#114 = COORDINATED_UNIVERSAL_TIME_OFFSET ( 1, 0, .AHEAD. ) ;
#115 = EDGE_CURVE ( 'NONE', #24, #24, #110, .T. ) ;
#116 = DIRECTION ( 'NONE',  ( 1.000000000000000000, 0.0000000000000000000, 0.0000000000000000000 ) ) ;
#117 = UNCERTAINTY_MEASURE_WITH_UNIT (LENGTH_MEASURE( 1.000000000000000082E-05 ), #49, 'distance_accuracy_value', 'NONE');
#118 = VERTEX_POINT ( 'NONE', #213 ) ;
#119 = PLANE ( 'NONE',  #230 ) ;
#120 = PERSON_AND_ORGANIZATION_ROLE ( 'creator' ) ;
#121 = PLANE ( 'NONE',  #59 ) ;
#122 = COORDINATED_UNIVERSAL_TIME_OFFSET ( 1, 0, .AHEAD. ) ;
#123 = DIRECTION ( 'NONE',  ( -3.491481338843133355E-15, -4.757044557636762305E-16, -1.000000000000000000 ) ) ;
#124 = SECURITY_CLASSIFICATION_LEVEL ( 'unclassified' ) ;
#125 = CYLINDRICAL_SURFACE ( 'NONE', #194, 1.999999999999993561 ) ;
#126 = DIRECTION ( 'NONE',  ( -3.491481338843133355E-15, -4.757044557636762305E-16, -1.000000000000000000 ) ) ;
#127 = AXIS2_PLACEMENT_3D ( 'NONE', #225, #72, #10 ) ;
#128 = CC_DESIGN_APPROVAL ( #62, ( #193 ) ) ;
#129 =( NAMED_UNIT ( * ) PLANE_ANGLE_UNIT ( ) SI_UNIT ( $, .RADIAN. ) );
#130 = ADVANCED_BREP_SHAPE_REPRESENTATION ( '321349', ( #178, #171, #101 ), #50 ) ;
#131 = ORIENTED_EDGE ( 'NONE', *, *, #87, .T. ) ;
#132 = VERTEX_POINT ( 'NONE', #174 ) ;
#133 = ADVANCED_FACE ( 'NONE', ( #206 ), #38, .T. ) ;
#134 = EDGE_LOOP ( 'NONE', ( #91 ) ) ;
#135 = DATE_AND_TIME ( #108, #42 ) ;
#136 = EDGE_CURVE ( 'NONE', #151, #151, #3, .T. ) ;
#137 = FACE_OUTER_BOUND ( 'NONE', #199, .T. ) ;
#138 = DIRECTION ( 'NONE',  ( 0.0000000000000000000, 1.000000000000000000, 0.0000000000000000000 ) ) ;
#139 = CARTESIAN_POINT ( 'NONE',  ( 2.779219145719134403E-13, -7.189289034394536528E-15, 79.60000000000000853 ) ) ;
#140 = PERSON_AND_ORGANIZATION_ROLE ( 'creator' ) ;
#141 = SECURITY_CLASSIFICATION ( '', '', #124 ) ;
#142 = DIRECTION ( 'NONE',  ( 0.0000000000000000000, 1.000000000000000000, 0.0000000000000000000 ) ) ;
#143 = APPROVAL_DATE_TIME ( #185, #189 ) ;
#144 = CARTESIAN_POINT ( 'NONE',  ( 0.0000000000000000000, 0.0000000000000000000, 0.0000000000000000000 ) ) ;
#145 = EDGE_CURVE ( 'NONE', #218, #218, #67, .T. ) ;
#146 = CC_DESIGN_PERSON_AND_ORGANIZATION_ASSIGNMENT ( #11, #15, ( #141 ) ) ;
#147 = PRODUCT_RELATED_PRODUCT_CATEGORY ( 'detail', '', ( #55 ) ) ;
#148 = VERTEX_POINT ( 'NONE', #149 ) ;
#149 = CARTESIAN_POINT ( 'NONE',  ( 4.746745271594075818E-14, 2.228999999999998316, 13.59521879377095921 ) ) ;
#150 = EDGE_LOOP ( 'NONE', ( #28 ) ) ;
#151 = VERTEX_POINT ( 'NONE', #27 ) ;
#152 = DIRECTION ( 'NONE',  ( -2.764906156141398881E-30, 1.000000000000000000, -7.782518959070496520E-16 ) ) ;
#153 = APPROVAL_PERSON_ORGANIZATION ( #22, #62, #29 ) ;
#154 = EDGE_LOOP ( 'NONE', ( #99 ) ) ;
#155 = FACE_BOUND ( 'NONE', #134, .T. ) ;
#156 = APPROVAL_DATE_TIME ( #13, #63 ) ;
#157 = DIRECTION ( 'NONE',  ( -3.491481338843133355E-15, 9.031770143711729009E-17, -1.000000000000000000 ) ) ;
#158 = CALENDAR_DATE ( 2021, 26, 11 ) ;
#159 = AXIS2_PLACEMENT_3D ( 'NONE', #239, #14, #52 ) ;
#160 = DIRECTION ( 'NONE',  ( 3.491481338843133355E-15, -9.031770143711729009E-17, 1.000000000000000000 ) ) ;
#161 = CALENDAR_DATE ( 2021, 26, 11 ) ;
#162 = DIRECTION ( 'NONE',  ( 3.491481338843133355E-15, 4.757044557636762305E-16, 1.000000000000000000 ) ) ;
#163 = CC_DESIGN_SECURITY_CLASSIFICATION ( #141, ( #229 ) ) ;
#164 = DIRECTION ( 'NONE',  ( -3.491481338843133355E-15, 9.031770143711729009E-17, -1.000000000000000000 ) ) ;
#165 = CC_DESIGN_APPROVAL ( #63, ( #229 ) ) ;
#166 = DIRECTION ( 'NONE',  ( -1.660913230103404430E-30, 1.000000000000000000, -4.757044557636762305E-16 ) ) ;
#167 = APPLICATION_CONTEXT ( 'configuration controlled 3d designs of mechanical parts and assemblies' ) ;
#168 = AXIS2_PLACEMENT_3D ( 'NONE', #190, #123, #12 ) ;
#169 = EDGE_LOOP ( 'NONE', ( #23 ) ) ;
#170 = CALENDAR_DATE ( 2021, 26, 11 ) ;
#171 = MANIFOLD_SOLID_BREP ( 'Corps-Déplacer/Copier1[2]', #232 ) ;
#172 = CIRCLE ( 'NONE', #237, 2.228999999999999648 ) ;
#173 = ADVANCED_FACE ( 'NONE', ( #227 ), #119, .T. ) ;
#174 = CARTESIAN_POINT ( 'NONE',  ( 0.0000000000000000000, 1.998059892324149045, 0.0000000000000000000 ) ) ;
#175 = ORIENTED_EDGE ( 'NONE', *, *, #115, .T. ) ;
#176 = EDGE_LOOP ( 'NONE', ( #233 ) ) ;
#177 = APPROVAL_DATE_TIME ( #97, #62 ) ;
#178 = MANIFOLD_SOLID_BREP ( 'Corps-Déplacer/Copier1[1]', #93 ) ;
#179 = DESIGN_CONTEXT ( 'detailed design', #167, 'design' ) ;
#180 = CONICAL_SURFACE ( 'NONE', #75, 1.998059892324149045, 0.5235987755982979275 ) ;
#181 = DATE_TIME_ROLE ( 'creation_date' ) ;
#182 = FACE_OUTER_BOUND ( 'NONE', #96, .T. ) ;
#183 = PERSON ( 'UNSPECIFIED', 'UNSPECIFIED', 'UNSPECIFIED', ('UNSPECIFIED'), ('UNSPECIFIED'), ('UNSPECIFIED') ) ;
#184 = PLANE ( 'NONE',  #168 ) ;
#185 = DATE_AND_TIME ( #89, #113 ) ;
#186 = ORGANIZATION ( 'UNSPECIFIED', 'UNSPECIFIED', '' ) ;
#187 = DIRECTION ( 'NONE',  ( 1.660913230103404430E-30, -1.000000000000000000, 4.757044557636762305E-16 ) ) ;
#188 = APPROVAL_ROLE ( '' ) ;
#189 = APPROVAL ( #238, 'UNSPECIFIED' ) ;
#190 = CARTESIAN_POINT ( 'NONE',  ( -1.659302054850081214E-30, 1.998059892324149045, -4.752429968306443828E-16 ) ) ;
#191 = CYLINDRICAL_SURFACE ( 'NONE', #6, 2.228999999999995207 ) ;
#192 = LOCAL_TIME ( 11, 2, 53.00000000000000000, #53 ) ;
#193 = PRODUCT_DEFINITION ( 'UNKNOWN', '', #229, #179 ) ;
#194 = AXIS2_PLACEMENT_3D ( 'NONE', #208, #57, #103 ) ;
#195 = ORIENTED_EDGE ( 'NONE', *, *, #83, .F. ) ;
#196 = PERSON_AND_ORGANIZATION_ROLE ( 'design_owner' ) ;
#197 = EDGE_LOOP ( 'NONE', ( #4 ) ) ;
#198 = AXIS2_PLACEMENT_3D ( 'NONE', #60, #126, #19 ) ;
#199 = EDGE_LOOP ( 'NONE', ( #46 ) ) ;
#200 = APPLICATION_PROTOCOL_DEFINITION ( 'international standard', 'config_control_design', 1994, #167 ) ;
#201 = EDGE_LOOP ( 'NONE', ( #95 ) ) ;
#202 = VERTEX_POINT ( 'NONE', #234 ) ;
#203 = FACE_BOUND ( 'NONE', #150, .T. ) ;
#204 = CARTESIAN_POINT ( 'NONE',  ( 2.793185071074506684E-13, -7.225416114969383207E-15, 80.00000000000000000 ) ) ;
#205 = CARTESIAN_POINT ( 'NONE',  ( 4.746745271594075818E-14, -1.227888911988091315E-15, 13.59521879377095921 ) ) ;
#206 = FACE_OUTER_BOUND ( 'NONE', #169, .T. ) ;
#207 = SHAPE_DEFINITION_REPRESENTATION ( #35, #130 ) ;
#208 = CARTESIAN_POINT ( 'NONE',  ( 0.0000000000000000000, 0.0000000000000000000, 0.0000000000000000000 ) ) ;
#209 = CARTESIAN_POINT ( 'NONE',  ( 4.746745271594076449E-14, 6.467306157278917855E-15, 13.59521879377096099 ) ) ;
#210 = APPROVAL_PERSON_ORGANIZATION ( #68, #63, #188 ) ;
#211 = AXIS2_PLACEMENT_3D ( 'NONE', #209, #41, #152 ) ;
#212 = ADVANCED_FACE ( 'NONE', ( #8, #109 ), #191, .T. ) ;
#213 = CARTESIAN_POINT ( 'NONE',  ( 2.793185071074506684E-13, 1.599999999999987876, 80.00000000000000000 ) ) ;
#214 = DIRECTION ( 'NONE',  ( 0.0000000000000000000, 0.0000000000000000000, 1.000000000000000000 ) ) ;
#215 = EDGE_LOOP ( 'NONE', ( #26 ) ) ;
#216 =( NAMED_UNIT ( * ) SI_UNIT ( $, .STERADIAN. ) SOLID_ANGLE_UNIT ( ) );
#217 = CIRCLE ( 'NONE', #222, 1.599999999999994982 ) ;
#218 = VERTEX_POINT ( 'NONE', #74 ) ;
#219 = CARTESIAN_POINT ( 'NONE',  ( 2.793185071074506684E-13, -7.225416114969383207E-15, 80.00000000000000000 ) ) ;
#220 = CC_DESIGN_APPROVAL ( #189, ( #141 ) ) ;
#221 = CARTESIAN_POINT ( 'NONE',  ( 3.318604109700162428E-30, 4.521504223256404233E-31, 9.504859936612887656E-16 ) ) ;
#222 = AXIS2_PLACEMENT_3D ( 'NONE', #204, #236, #70 ) ;
#223 = DIRECTION ( 'NONE',  ( -3.153425691349006731E-31, -1.000000000000000000, -9.031770143711729009E-17 ) ) ;
#224 = CC_DESIGN_DATE_AND_TIME_ASSIGNMENT ( #226, #37, ( #141 ) ) ;
#225 = CARTESIAN_POINT ( 'NONE',  ( 4.885231259955590439E-14, -1.263712492114123682E-15, 13.99185842870425134 ) ) ;
#226 = DATE_AND_TIME ( #161, #48 ) ;
#227 = FACE_OUTER_BOUND ( 'NONE', #7, .T. ) ;
#228 = DIRECTION ( 'NONE',  ( -3.491481338843133355E-15, -4.757044557636762305E-16, -1.000000000000000000 ) ) ;
#229 = PRODUCT_DEFINITION_FORMATION_WITH_SPECIFIED_SOURCE ( 'ANY', '', #55, .NOT_KNOWN. ) ;
#230 = AXIS2_PLACEMENT_3D ( 'NONE', #32, #58, #39 ) ;
#231 = CONICAL_SURFACE ( 'NONE', #111, 1.999999999999995337, 0.7853981633974516097 ) ;
#232 = CLOSED_SHELL ( 'NONE', ( #133, #212, #5, #61 ) ) ;
#233 = ORIENTED_EDGE ( 'NONE', *, *, #240, .T. ) ;
#234 = CARTESIAN_POINT ( 'NONE',  ( 4.746745271594075818E-14, 2.228999999999998316, 13.59521879377095921 ) ) ;
#235 = FACE_OUTER_BOUND ( 'NONE', #21, .T. ) ;
#236 = DIRECTION ( 'NONE',  ( -3.491481338843133355E-15, 9.031770143711729009E-17, -1.000000000000000000 ) ) ;
#237 = AXIS2_PLACEMENT_3D ( 'NONE', #34, #107, #138 ) ;
#238 = APPROVAL_STATUS ( 'not_yet_approved' ) ;
#239 = CARTESIAN_POINT ( 'NONE',  ( 1.396592535537256695E-15, 1.902817823054709754E-16, 0.4000000000000010214 ) ) ;
#240 = EDGE_CURVE ( 'NONE', #132, #132, #45, .T. ) ;
#241 = EDGE_CURVE ( 'NONE', #148, #148, #25, .T. ) ;
#242 = APPLICATION_CONTEXT ( 'configuration controlled 3d designs of mechanical parts and assemblies' ) ;
#243 = AXIS2_PLACEMENT_3D ( 'NONE', #85, #164, #142 ) ;
ENDSEC;
END-ISO-10303-21;
