ISO-10303-21;
HEADER;
FILE_DESCRIPTION (( 'STEP AP203' ),
    '1' );
FILE_NAME ('321348.step',
    '2021-11-26T10:02:53',
    ( '' ),
    ( '' ),
    'SwSTEP 2.0',
    'SolidWorks 2019',
    '' );
FILE_SCHEMA (( 'CONFIG_CONTROL_DESIGN' ));
ENDSEC;

DATA;
#1 = ADVANCED_FACE ( 'NONE', ( #213, #64 ), #105, .T. ) ;
#2 = EDGE_LOOP ( 'NONE', ( #78 ) ) ;
#3 = FACE_OUTER_BOUND ( 'NONE', #162, .T. ) ;
#4 = ADVANCED_FACE ( 'NONE', ( #48 ), #231, .T. ) ;
#5 = ORIENTED_EDGE ( 'NONE', *, *, #46, .T. ) ;
#6 = AXIS2_PLACEMENT_3D ( 'NONE', #15, #85, #149 ) ;
#7 = PLANE ( 'NONE',  #139 ) ;
#8 = CYLINDRICAL_SURFACE ( 'NONE', #73, 2.223999999999994870 ) ;
#9 = ADVANCED_FACE ( 'NONE', ( #117, #3 ), #194, .T. ) ;
#10 = PERSON_AND_ORGANIZATION_ROLE ( 'creator' ) ;
#11 = AXIS2_PLACEMENT_3D ( 'NONE', #118, #138, #185 ) ;
#12 =( NAMED_UNIT ( * ) PLANE_ANGLE_UNIT ( ) SI_UNIT ( $, .RADIAN. ) );
#13 = EDGE_LOOP ( 'NONE', ( #44 ) ) ;
#14 = DATE_AND_TIME ( #202, #21 ) ;
#15 = CARTESIAN_POINT ( 'NONE',  ( 4.749768983130353954E-14, 6.465185006801464611E-15, 13.60387904780880675 ) ) ;
#16 = VERTEX_POINT ( 'NONE', #171 ) ;
#17 = CC_DESIGN_PERSON_AND_ORGANIZATION_ASSIGNMENT ( #38, #209, ( #158 ) ) ;
#18 = UNCERTAINTY_MEASURE_WITH_UNIT (LENGTH_MEASURE( 1.000000000000000082E-05 ), #170, 'distance_accuracy_value', 'NONE');
#19 = APPROVAL_ROLE ( '' ) ;
#20 = CLOSED_SHELL ( 'NONE', ( #193, #150, #187, #4 ) ) ;
#21 = LOCAL_TIME ( 11, 2, 53.00000000000000000, #51 ) ;
#22 = COORDINATED_UNIVERSAL_TIME_OFFSET ( 1, 0, .AHEAD. ) ;
#23 = CARTESIAN_POINT ( 'NONE',  ( 4.885231259955590439E-14, -1.263712492114123682E-15, 13.99185842870425134 ) ) ;
#24 = APPROVAL_DATE_TIME ( #178, #219 ) ;
#25 = DIRECTION ( 'NONE',  ( -1.659311489324921717E-30, 1.000000000000000000, -4.752456989716340872E-16 ) ) ;
#26 = CYLINDRICAL_SURFACE ( 'NONE', #11, 1.999999999999993561 ) ;
#27 = MANIFOLD_SOLID_BREP ( 'Corps-Déplacer/Copier1[2]', #20 ) ;
#28 = MANIFOLD_SOLID_BREP ( 'Corps-Déplacer/Copier1[1]', #34 ) ;
#29 = EDGE_LOOP ( 'NONE', ( #55 ) ) ;
#30 = CARTESIAN_POINT ( 'NONE',  ( -1.653553589123075636E-30, 1.993059892324148263, -4.735965708099598486E-16 ) ) ;
#31 = DIRECTION ( 'NONE',  ( 1.659311489324921717E-30, -1.000000000000000000, 4.752456989716340872E-16 ) ) ;
#32 = ADVANCED_FACE ( 'NONE', ( #65, #99 ), #26, .T. ) ;
#33 = PERSON_AND_ORGANIZATION ( #88, #155 ) ;
#34 = CLOSED_SHELL ( 'NONE', ( #41, #1, #32, #9, #58 ) ) ;
#35 = VERTEX_POINT ( 'NONE', #189 ) ;
#36 = EDGE_LOOP ( 'NONE', ( #96 ) ) ;
#37 = FACE_OUTER_BOUND ( 'NONE', #198, .T. ) ;
#38 = PERSON_AND_ORGANIZATION ( #88, #155 ) ;
#39 = PERSON_AND_ORGANIZATION ( #88, #155 ) ;
#40 = CONICAL_SURFACE ( 'NONE', #87, 1.993059892324148263, 0.5235987755982979275 ) ;
#41 = ADVANCED_FACE ( 'NONE', ( #143 ), #7, .T. ) ;
#42 = CC_DESIGN_DATE_AND_TIME_ASSIGNMENT ( #160, #182, ( #184 ) ) ;
#43 = COORDINATED_UNIVERSAL_TIME_OFFSET ( 1, 0, .AHEAD. ) ;
#44 = ORIENTED_EDGE ( 'NONE', *, *, #46, .F. ) ;
#45 = CARTESIAN_POINT ( 'NONE',  ( 2.793185071074506684E-13, -7.225416114969383207E-15, 80.00000000000000000 ) ) ;
#46 = EDGE_CURVE ( 'NONE', #35, #35, #192, .T. ) ;
#47 = AXIS2_PLACEMENT_3D ( 'NONE', #137, #211, #114 ) ;
#48 = FACE_OUTER_BOUND ( 'NONE', #95, .T. ) ;
#49 = CARTESIAN_POINT ( 'NONE',  ( 4.749768983130353323E-14, -1.228671086226651203E-15, 13.60387904780880497 ) ) ;
#50 = CC_DESIGN_APPROVAL ( #219, ( #184 ) ) ;
#51 = COORDINATED_UNIVERSAL_TIME_OFFSET ( 1, 0, .AHEAD. ) ;
#52 = VERTEX_POINT ( 'NONE', #201 ) ;
#53 = CC_DESIGN_SECURITY_CLASSIFICATION ( #184, ( #158 ) ) ;
#54 = FACE_OUTER_BOUND ( 'NONE', #36, .T. ) ;
#55 = ORIENTED_EDGE ( 'NONE', *, *, #146, .T. ) ;
#56 = APPROVAL_STATUS ( 'not_yet_approved' ) ;
#57 = CARTESIAN_POINT ( 'NONE',  ( 0.0000000000000000000, 0.0000000000000000000, 0.0000000000000000000 ) ) ;
#58 = ADVANCED_FACE ( 'NONE', ( #159 ), #61, .T. ) ;
#59 = APPROVAL_DATE_TIME ( #147, #120 ) ;
#60 = LOCAL_TIME ( 11, 2, 53.00000000000000000, #226 ) ;
#61 = PLANE ( 'NONE',  #47 ) ;
#62 = APPLICATION_CONTEXT ( 'configuration controlled 3d designs of mechanical parts and assemblies' ) ;
#63 = ORIENTED_EDGE ( 'NONE', *, *, #204, .F. ) ;
#64 = FACE_OUTER_BOUND ( 'NONE', #79, .T. ) ;
#65 = FACE_OUTER_BOUND ( 'NONE', #29, .T. ) ;
#66 = VERTEX_POINT ( 'NONE', #122 ) ;
#67 = CALENDAR_DATE ( 2021, 26, 11 ) ;
#68 = APPROVAL ( #56, 'UNSPECIFIED' ) ;
#69 = CARTESIAN_POINT ( 'NONE',  ( 0.0000000000000000000, 0.0000000000000000000, 0.0000000000000000000 ) ) ;
#70 = CARTESIAN_POINT ( 'NONE',  ( 4.749768983130353323E-14, -1.228671086226651203E-15, 13.60387904780880497 ) ) ;
#71 = DIRECTION ( 'NONE',  ( -1.659311489324922067E-30, 1.000000000000000000, -4.752456989716341858E-16 ) ) ;
#72 = APPROVAL_ROLE ( '' ) ;
#73 = AXIS2_PLACEMENT_3D ( 'NONE', #69, #148, #71 ) ;
#74 = PERSON_AND_ORGANIZATION_ROLE ( 'classification_officer' ) ;
#75 = DIRECTION ( 'NONE',  ( 0.0000000000000000000, 0.0000000000000000000, 1.000000000000000000 ) ) ;
#76 = EDGE_CURVE ( 'NONE', #16, #16, #230, .T. ) ;
#77 = PERSON_AND_ORGANIZATION ( #88, #155 ) ;
#78 = ORIENTED_EDGE ( 'NONE', *, *, #135, .T. ) ;
#79 = EDGE_LOOP ( 'NONE', ( #113 ) ) ;
#80 = AXIS2_PLACEMENT_3D ( 'NONE', #49, #166, #197 ) ;
#81 = AXIS2_PLACEMENT_3D ( 'NONE', #70, #207, #104 ) ;
#82 = DIRECTION ( 'NONE',  ( 3.491481338843133355E-15, 4.752456989716340872E-16, 1.000000000000000000 ) ) ;
#83 = CC_DESIGN_PERSON_AND_ORGANIZATION_ASSIGNMENT ( #77, #74, ( #184 ) ) ;
#84 = CARTESIAN_POINT ( 'NONE',  ( 2.793185071074506684E-13, -7.225416114969383207E-15, 80.00000000000000000 ) ) ;
#85 = DIRECTION ( 'NONE',  ( -3.491481338843133355E-15, -4.752456989716340872E-16, -1.000000000000000000 ) ) ;
#86 = PLANE ( 'NONE',  #234 ) ;
#87 = AXIS2_PLACEMENT_3D ( 'NONE', #200, #82, #217 ) ;
#88 = PERSON ( 'UNSPECIFIED', 'UNSPECIFIED', 'UNSPECIFIED', ('UNSPECIFIED'), ('UNSPECIFIED'), ('UNSPECIFIED') ) ;
#89 = DATE_AND_TIME ( #208, #60 ) ;
#90 = DIRECTION ( 'NONE',  ( 1.000000000000000000, 0.0000000000000000000, 0.0000000000000000000 ) ) ;
#91 = PRODUCT_RELATED_PRODUCT_CATEGORY ( 'detail', '', ( #119 ) ) ;
#92 = PERSON_AND_ORGANIZATION ( #88, #155 ) ;
#93 = CC_DESIGN_APPROVAL ( #68, ( #110 ) ) ;
#94 = DIRECTION ( 'NONE',  ( -3.491481338843133355E-15, 9.031770143711729009E-17, -1.000000000000000000 ) ) ;
#95 = EDGE_LOOP ( 'NONE', ( #216 ) ) ;
#96 = ORIENTED_EDGE ( 'NONE', *, *, #76, .T. ) ;
#97 = EDGE_LOOP ( 'NONE', ( #129 ) ) ;
#98 = CC_DESIGN_DATE_AND_TIME_ASSIGNMENT ( #14, #224, ( #110 ) ) ;
#99 = FACE_OUTER_BOUND ( 'NONE', #13, .T. ) ;
#100 = CC_DESIGN_APPROVAL ( #120, ( #158 ) ) ;
#101 = DIRECTION ( 'NONE',  ( -1.659311489324921717E-30, 1.000000000000000000, -4.752456989716340872E-16 ) ) ;
#102 = FACE_OUTER_BOUND ( 'NONE', #168, .T. ) ;
#103 = APPLICATION_CONTEXT ( 'configuration controlled 3d designs of mechanical parts and assemblies' ) ;
#104 = DIRECTION ( 'NONE',  ( 0.0000000000000000000, 1.000000000000000000, 0.0000000000000000000 ) ) ;
#105 = CONICAL_SURFACE ( 'NONE', #239, 1.999999999999995337, 0.7853981633974516097 ) ;
#106 = FACE_BOUND ( 'NONE', #140, .T. ) ;
#107 = EDGE_LOOP ( 'NONE', ( #5 ) ) ;
#108 = CARTESIAN_POINT ( 'NONE',  ( 4.749768983130354585E-14, 6.465185006801464611E-15, 13.60387904780880852 ) ) ;
#109 = EDGE_CURVE ( 'NONE', #236, #236, #220, .T. ) ;
#110 = PRODUCT_DEFINITION ( 'UNKNOWN', '', #158, #210 ) ;
#111 = CIRCLE ( 'NONE', #6, 2.223999999999992205 ) ;
#112 = AXIS2_PLACEMENT_3D ( 'NONE', #190, #218, #101 ) ;
#113 = ORIENTED_EDGE ( 'NONE', *, *, #146, .F. ) ;
#114 = DIRECTION ( 'NONE',  ( 3.153425691349006731E-31, 1.000000000000000000, 9.031770143711729009E-17 ) ) ;
#115 = CIRCLE ( 'NONE', #112, 1.993059892324148263 ) ;
#116 = DIRECTION ( 'NONE',  ( -3.153425691349006731E-31, -1.000000000000000000, -9.031770143711729009E-17 ) ) ;
#117 = FACE_BOUND ( 'NONE', #107, .T. ) ;
#118 = CARTESIAN_POINT ( 'NONE',  ( 0.0000000000000000000, 0.0000000000000000000, 0.0000000000000000000 ) ) ;
#119 = PRODUCT ( '321348', '321348', '', ( #130 ) ) ;
#120 = APPROVAL ( #238, 'UNSPECIFIED' ) ;
#121 = CARTESIAN_POINT ( 'NONE',  ( 2.793185071074506684E-13, 1.599999999999987876, 80.00000000000000000 ) ) ;
#122 = CARTESIAN_POINT ( 'NONE',  ( 2.779219145719134403E-13, 1.999999999999988010, 79.60000000000000853 ) ) ;
#123 = DIRECTION ( 'NONE',  ( -3.491481338843133355E-15, -4.752456989716340872E-16, -1.000000000000000000 ) ) ;
#124 = EDGE_CURVE ( 'NONE', #169, #169, #111, .T. ) ;
#125 = DIRECTION ( 'NONE',  ( -3.491481338843133355E-15, 9.031770143711729009E-17, -1.000000000000000000 ) ) ;
#126 = APPROVAL_PERSON_ORGANIZATION ( #92, #120, #19 ) ;
#127 = EDGE_LOOP ( 'NONE', ( #227 ) ) ;
#128 = CARTESIAN_POINT ( 'NONE',  ( 2.779219145719134403E-13, -7.189289034394536528E-15, 79.60000000000000853 ) ) ;
#129 = ORIENTED_EDGE ( 'NONE', *, *, #76, .F. ) ;
#130 = MECHANICAL_CONTEXT ( 'NONE', #62, 'mechanical' ) ;
#131 = APPROVAL_PERSON_ORGANIZATION ( #174, #68, #72 ) ;
#132 = PERSON_AND_ORGANIZATION ( #88, #155 ) ;
#133 = CC_DESIGN_PERSON_AND_ORGANIZATION_ASSIGNMENT ( #242, #157, ( #158 ) ) ;
#134 = APPROVAL_STATUS ( 'not_yet_approved' ) ;
#135 = EDGE_CURVE ( 'NONE', #153, #153, #199, .T. ) ;
#136 = APPROVAL_ROLE ( '' ) ;
#137 = CARTESIAN_POINT ( 'NONE',  ( 4.749768983130354585E-14, 2.223999999999998423, 13.60387904780880852 ) ) ;
#138 = DIRECTION ( 'NONE',  ( -3.491481338843133355E-15, 9.031770143711729009E-17, -1.000000000000000000 ) ) ;
#139 = AXIS2_PLACEMENT_3D ( 'NONE', #45, #196, #116 ) ;
#140 = EDGE_LOOP ( 'NONE', ( #63 ) ) ;
#141 = AXIS2_PLACEMENT_3D ( 'NONE', #179, #123, #206 ) ;
#142 = DIRECTION ( 'NONE',  ( -3.491481338843133355E-15, -4.752456989716340872E-16, -1.000000000000000000 ) ) ;
#143 = FACE_OUTER_BOUND ( 'NONE', #215, .T. ) ;
#144 = CALENDAR_DATE ( 2021, 26, 11 ) ;
#145 = LOCAL_TIME ( 11, 2, 53.00000000000000000, #167 ) ;
#146 = EDGE_CURVE ( 'NONE', #66, #66, #191, .T. ) ;
#147 = DATE_AND_TIME ( #67, #229 ) ;
#148 = DIRECTION ( 'NONE',  ( -3.491481338843133355E-15, -4.752456989716340872E-16, -1.000000000000000000 ) ) ;
#149 = DIRECTION ( 'NONE',  ( -2.771122222139917383E-30, 1.000000000000000000, -7.800015629392145479E-16 ) ) ;
#150 = ADVANCED_FACE ( 'NONE', ( #102, #222 ), #8, .T. ) ;
#151 = CC_DESIGN_PERSON_AND_ORGANIZATION_ASSIGNMENT ( #39, #152, ( #119 ) ) ;
#152 = PERSON_AND_ORGANIZATION_ROLE ( 'design_owner' ) ;
#153 = VERTEX_POINT ( 'NONE', #121 ) ;
#154 = APPROVAL_DATE_TIME ( #89, #68 ) ;
#155 = ORGANIZATION ( 'UNSPECIFIED', 'UNSPECIFIED', '' ) ;
#156 = AXIS2_PLACEMENT_3D ( 'NONE', #23, #94, #177 ) ;
#157 = PERSON_AND_ORGANIZATION_ROLE ( 'design_supplier' ) ;
#158 = PRODUCT_DEFINITION_FORMATION_WITH_SPECIFIED_SOURCE ( 'ANY', '', #119, .NOT_KNOWN. ) ;
#159 = FACE_OUTER_BOUND ( 'NONE', #127, .T. ) ;
#160 = DATE_AND_TIME ( #144, #145 ) ;
#161 = SHAPE_DEFINITION_REPRESENTATION ( #180, #195 ) ;
#162 = EDGE_LOOP ( 'NONE', ( #228 ) ) ;
#163 = ORIENTED_EDGE ( 'NONE', *, *, #135, .F. ) ;
#164 = AXIS2_PLACEMENT_3D ( 'NONE', #30, #142, #25 ) ;
#165 = APPROVAL_PERSON_ORGANIZATION ( #132, #219, #136 ) ;
#166 = DIRECTION ( 'NONE',  ( -3.491481338843133355E-15, 9.031770143711729009E-17, -1.000000000000000000 ) ) ;
#167 = COORDINATED_UNIVERSAL_TIME_OFFSET ( 1, 0, .AHEAD. ) ;
#168 = EDGE_LOOP ( 'NONE', ( #243 ) ) ;
#169 = VERTEX_POINT ( 'NONE', #233 ) ;
#170 =( LENGTH_UNIT ( ) NAMED_UNIT ( * ) SI_UNIT ( .MILLI., .METRE. ) );
#171 = CARTESIAN_POINT ( 'NONE',  ( 1.396592535537252948E-15, 2.223999999999997979, 0.3999999999999999112 ) ) ;
#172 = DIRECTION ( 'NONE',  ( 0.0000000000000000000, 1.000000000000000000, 0.0000000000000000000 ) ) ;
#173 = LOCAL_TIME ( 11, 2, 53.00000000000000000, #43 ) ;
#174 = PERSON_AND_ORGANIZATION ( #88, #155 ) ;
#175 = SECURITY_CLASSIFICATION_LEVEL ( 'unclassified' ) ;
#176 = AXIS2_PLACEMENT_3D ( 'NONE', #84, #186, #172 ) ;
#177 = DIRECTION ( 'NONE',  ( 0.0000000000000000000, 1.000000000000000000, 0.0000000000000000000 ) ) ;
#178 = DATE_AND_TIME ( #212, #173 ) ;
#179 = CARTESIAN_POINT ( 'NONE',  ( 1.396592535537256498E-15, 1.900982795886540638E-16, 0.4000000000000009659 ) ) ;
#180 = PRODUCT_DEFINITION_SHAPE ( 'NONE', 'NONE',  #110 ) ;
#181 = CARTESIAN_POINT ( 'NONE',  ( 2.779219145719134403E-13, -7.189289034394536528E-15, 79.60000000000000853 ) ) ;
#182 = DATE_TIME_ROLE ( 'classification_date' ) ;
#183 = ORIENTED_EDGE ( 'NONE', *, *, #124, .F. ) ;
#184 = SECURITY_CLASSIFICATION ( '', '', #175 ) ;
#185 = DIRECTION ( 'NONE',  ( 3.153425691349006731E-31, 1.000000000000000000, 9.031770143711729009E-17 ) ) ;
#186 = DIRECTION ( 'NONE',  ( -3.491481338843133355E-15, 9.031770143711729009E-17, -1.000000000000000000 ) ) ;
#187 = ADVANCED_FACE ( 'NONE', ( #54, #106 ), #40, .T. ) ;
#188 = DIRECTION ( 'NONE',  ( 0.0000000000000000000, 1.000000000000000000, 0.0000000000000000000 ) ) ;
#189 = CARTESIAN_POINT ( 'NONE',  ( 4.885231259955590439E-14, 1.999999999999990452, 13.99185842870425134 ) ) ;
#190 = CARTESIAN_POINT ( 'NONE',  ( 3.307107178246151271E-30, 4.501494666502967700E-31, 9.471931416199196973E-16 ) ) ;
#191 = CIRCLE ( 'NONE', #240, 1.999999999999995337 ) ;
#192 = CIRCLE ( 'NONE', #156, 1.999999999999991784 ) ;
#193 = ADVANCED_FACE ( 'NONE', ( #37 ), #86, .T. ) ;
#194 = CONICAL_SURFACE ( 'NONE', #80, 2.223999999999999755, 0.5235987755982934866 ) ;
#195 = ADVANCED_BREP_SHAPE_REPRESENTATION ( '321348', ( #28, #27, #205 ), #221 ) ;
#196 = DIRECTION ( 'NONE',  ( 3.491481338843133355E-15, -9.031770143711729009E-17, 1.000000000000000000 ) ) ;
#197 = DIRECTION ( 'NONE',  ( 0.0000000000000000000, 1.000000000000000000, 0.0000000000000000000 ) ) ;
#198 = EDGE_LOOP ( 'NONE', ( #183 ) ) ;
#199 = CIRCLE ( 'NONE', #176, 1.599999999999994982 ) ;
#200 = CARTESIAN_POINT ( 'NONE',  ( 3.307107178246151271E-30, 4.501494666502967700E-31, 9.471931416199196973E-16 ) ) ;
#201 = CARTESIAN_POINT ( 'NONE',  ( 6.842277657836020854E-46, 1.993059892324148263, 0.0000000000000000000 ) ) ;
#202 = CALENDAR_DATE ( 2021, 26, 11 ) ;
#203 = DIRECTION ( 'NONE',  ( 3.491481338843133355E-15, 4.752456989716340872E-16, 1.000000000000000000 ) ) ;
#204 = EDGE_CURVE ( 'NONE', #52, #52, #115, .T. ) ;
#205 = AXIS2_PLACEMENT_3D ( 'NONE', #57, #75, #90 ) ;
#206 = DIRECTION ( 'NONE',  ( -1.645353819395571819E-30, 1.000000000000000000, -4.631259279951574761E-16 ) ) ;
#207 = DIRECTION ( 'NONE',  ( -3.491481338843133355E-15, 9.031770143711729009E-17, -1.000000000000000000 ) ) ;
#208 = CALENDAR_DATE ( 2021, 26, 11 ) ;
#209 = PERSON_AND_ORGANIZATION_ROLE ( 'creator' ) ;
#210 = DESIGN_CONTEXT ( 'detailed design', #103, 'design' ) ;
#211 = DIRECTION ( 'NONE',  ( -3.491481338843133355E-15, 9.031770143711729009E-17, -1.000000000000000000 ) ) ;
#212 = CALENDAR_DATE ( 2021, 26, 11 ) ;
#213 = FACE_BOUND ( 'NONE', #2, .T. ) ;
#214 = DIRECTION ( 'NONE',  ( -3.491481338843133355E-15, 9.031770143711729009E-17, -1.000000000000000000 ) ) ;
#215 = EDGE_LOOP ( 'NONE', ( #163 ) ) ;
#216 = ORIENTED_EDGE ( 'NONE', *, *, #204, .T. ) ;
#217 = DIRECTION ( 'NONE',  ( 1.659311489324922067E-30, -1.000000000000000000, 4.752456989716340872E-16 ) ) ;
#218 = DIRECTION ( 'NONE',  ( -3.491481338843133355E-15, -4.752456989716340872E-16, -1.000000000000000000 ) ) ;
#219 = APPROVAL ( #134, 'UNSPECIFIED' ) ;
#220 = CIRCLE ( 'NONE', #81, 2.223999999999999755 ) ;
#221 =( GEOMETRIC_REPRESENTATION_CONTEXT ( 3 ) GLOBAL_UNCERTAINTY_ASSIGNED_CONTEXT ( ( #18 ) ) GLOBAL_UNIT_ASSIGNED_CONTEXT ( ( #170, #12, #235 ) ) REPRESENTATION_CONTEXT ( 'NONE', 'WORKASPACE' ) );
#222 = FACE_OUTER_BOUND ( 'NONE', #97, .T. ) ;
#223 = CARTESIAN_POINT ( 'NONE',  ( 4.749768983130353323E-14, 2.223999999999998423, 13.60387904780880497 ) ) ;
#224 = DATE_TIME_ROLE ( 'creation_date' ) ;
#225 = CC_DESIGN_PERSON_AND_ORGANIZATION_ASSIGNMENT ( #33, #10, ( #110 ) ) ;
#226 = COORDINATED_UNIVERSAL_TIME_OFFSET ( 1, 0, .AHEAD. ) ;
#227 = ORIENTED_EDGE ( 'NONE', *, *, #109, .T. ) ;
#228 = ORIENTED_EDGE ( 'NONE', *, *, #109, .F. ) ;
#229 = LOCAL_TIME ( 11, 2, 53.00000000000000000, #22 ) ;
#230 = CIRCLE ( 'NONE', #141, 2.223999999999997979 ) ;
#231 = PLANE ( 'NONE',  #164 ) ;
#232 = DIRECTION ( 'NONE',  ( 0.0000000000000000000, 1.000000000000000000, 0.0000000000000000000 ) ) ;
#233 = CARTESIAN_POINT ( 'NONE',  ( 4.749768983130353323E-14, 2.223999999999998423, 13.60387904780880497 ) ) ;
#234 = AXIS2_PLACEMENT_3D ( 'NONE', #108, #203, #31 ) ;
#235 =( NAMED_UNIT ( * ) SI_UNIT ( $, .STERADIAN. ) SOLID_ANGLE_UNIT ( ) );
#236 = VERTEX_POINT ( 'NONE', #223 ) ;
#237 = APPLICATION_PROTOCOL_DEFINITION ( 'international standard', 'config_control_design', 1994, #103 ) ;
#238 = APPROVAL_STATUS ( 'not_yet_approved' ) ;
#239 = AXIS2_PLACEMENT_3D ( 'NONE', #181, #214, #232 ) ;
#240 = AXIS2_PLACEMENT_3D ( 'NONE', #128, #125, #188 ) ;
#241 = APPLICATION_PROTOCOL_DEFINITION ( 'international standard', 'config_control_design', 1994, #62 ) ;
#242 = PERSON_AND_ORGANIZATION ( #88, #155 ) ;
#243 = ORIENTED_EDGE ( 'NONE', *, *, #124, .T. ) ;
ENDSEC;
END-ISO-10303-21;
