ISO-10303-21;
HEADER;
FILE_DESCRIPTION (( 'STEP AP203' ),
    '1' );
FILE_NAME ('321347.step',
    '2021-11-26T10:02:52',
    ( '' ),
    ( '' ),
    'SwSTEP 2.0',
    'SolidWorks 2019',
    '' );
FILE_SCHEMA (( 'CONFIG_CONTROL_DESIGN' ));
ENDSEC;

DATA;
#1 = DIRECTION ( 'NONE',  ( 0.0000000000000000000, 1.000000000000000000, 0.0000000000000000000 ) ) ;
#2 = EDGE_CURVE ( 'NONE', #122, #122, #51, .T. ) ;
#3 = CARTESIAN_POINT ( 'NONE',  ( 2.793185071074506684E-13, -7.225416114969383207E-15, 80.00000000000000000 ) ) ;
#4 = CARTESIAN_POINT ( 'NONE',  ( 4.752792694666632089E-14, 6.463063856324017678E-15, 13.61253930184665251 ) ) ;
#5 = CONICAL_SURFACE ( 'NONE', #206, 2.218999999999999417, 0.5235987755982939307 ) ;
#6 = PERSON_AND_ORGANIZATION_ROLE ( 'design_owner' ) ;
#7 = ADVANCED_FACE ( 'NONE', ( #45 ), #109, .T. ) ;
#8 = APPROVAL_ROLE ( '' ) ;
#9 = COORDINATED_UNIVERSAL_TIME_OFFSET ( 1, 0, .AHEAD. ) ;
#10 = CONICAL_SURFACE ( 'NONE', #126, 1.999999999999995337, 0.7853981633974516097 ) ;
#11 = ORIENTED_EDGE ( 'NONE', *, *, #2, .F. ) ;
#12 = AXIS2_PLACEMENT_3D ( 'NONE', #120, #139, #197 ) ;
#13 = ADVANCED_BREP_SHAPE_REPRESENTATION ( '321347', ( #32, #24, #156 ), #185 ) ;
#14 = DIRECTION ( 'NONE',  ( 0.0000000000000000000, 1.000000000000000000, 0.0000000000000000000 ) ) ;
#15 = DIRECTION ( 'NONE',  ( 1.000000000000000000, 0.0000000000000000000, 0.0000000000000000000 ) ) ;
#16 = CYLINDRICAL_SURFACE ( 'NONE', #179, 1.999999999999993561 ) ;
#17 = CARTESIAN_POINT ( 'NONE',  ( 3.295630315954930417E-30, 4.481548122802781047E-31, 9.439060376152272479E-16 ) ) ;
#18 = APPROVAL ( #54, 'UNSPECIFIED' ) ;
#19 = CC_DESIGN_SECURITY_CLASSIFICATION ( #165, ( #211 ) ) ;
#20 = EDGE_LOOP ( 'NONE', ( #11 ) ) ;
#21 = EDGE_LOOP ( 'NONE', ( #41 ) ) ;
#22 = PERSON_AND_ORGANIZATION ( #162, #224 ) ;
#23 = CC_DESIGN_DATE_AND_TIME_ASSIGNMENT ( #69, #183, ( #165 ) ) ;
#24 = MANIFOLD_SOLID_BREP ( 'Corps-Déplacer/Copier1[2]', #191 ) ;
#25 = LOCAL_TIME ( 11, 2, 52.00000000000000000, #9 ) ;
#26 = SECURITY_CLASSIFICATION_LEVEL ( 'unclassified' ) ;
#27 = CARTESIAN_POINT ( 'NONE',  ( 2.779219145719134403E-13, -7.189289034394536528E-15, 79.60000000000000853 ) ) ;
#28 = DATE_AND_TIME ( #121, #101 ) ;
#29 = COORDINATED_UNIVERSAL_TIME_OFFSET ( 1, 0, .AHEAD. ) ;
#30 = DIRECTION ( 'NONE',  ( 3.153425691349006731E-31, 1.000000000000000000, 9.031770143711729009E-17 ) ) ;
#31 = EDGE_CURVE ( 'NONE', #74, #74, #143, .T. ) ;
#32 = MANIFOLD_SOLID_BREP ( 'Corps-Déplacer/Copier1[1]', #34 ) ;
#33 = CONICAL_SURFACE ( 'NONE', #231, 1.988059892324149036, 0.5235987755982979275 ) ;
#34 = CLOSED_SHELL ( 'NONE', ( #164, #182, #37, #89, #239 ) ) ;
#35 = PERSON_AND_ORGANIZATION ( #162, #224 ) ;
#36 = ORIENTED_EDGE ( 'NONE', *, *, #159, .T. ) ;
#37 = ADVANCED_FACE ( 'NONE', ( #48, #151 ), #16, .T. ) ;
#38 = EDGE_LOOP ( 'NONE', ( #223 ) ) ;
#39 = VERTEX_POINT ( 'NONE', #129 ) ;
#40 = CC_DESIGN_DATE_AND_TIME_ASSIGNMENT ( #28, #85, ( #114 ) ) ;
#41 = ORIENTED_EDGE ( 'NONE', *, *, #31, .F. ) ;
#42 = COORDINATED_UNIVERSAL_TIME_OFFSET ( 1, 0, .AHEAD. ) ;
#43 = EDGE_LOOP ( 'NONE', ( #68 ) ) ;
#44 = FACE_BOUND ( 'NONE', #240, .T. ) ;
#45 = FACE_OUTER_BOUND ( 'NONE', #130, .T. ) ;
#46 = LOCAL_TIME ( 11, 2, 52.00000000000000000, #42 ) ;
#47 = PLANE ( 'NONE',  #82 ) ;
#48 = FACE_OUTER_BOUND ( 'NONE', #38, .T. ) ;
#49 = DIRECTION ( 'NONE',  ( -3.491481338843133355E-15, 9.031770143711729009E-17, -1.000000000000000000 ) ) ;
#50 = CALENDAR_DATE ( 2021, 26, 11 ) ;
#51 = CIRCLE ( 'NONE', #67, 1.599999999999994982 ) ;
#52 = AXIS2_PLACEMENT_3D ( 'NONE', #4, #208, #96 ) ;
#53 = CARTESIAN_POINT ( 'NONE',  ( 4.752792694666631458E-14, 2.218999999999998529, 13.61253930184665073 ) ) ;
#54 = APPROVAL_STATUS ( 'not_yet_approved' ) ;
#55 = AXIS2_PLACEMENT_3D ( 'NONE', #213, #49, #30 ) ;
#56 = EDGE_LOOP ( 'NONE', ( #36 ) ) ;
#57 = PLANE ( 'NONE',  #73 ) ;
#58 =( NAMED_UNIT ( * ) PLANE_ANGLE_UNIT ( ) SI_UNIT ( $, .RADIAN. ) );
#59 = DIRECTION ( 'NONE',  ( -1.649061241250901544E-30, 1.000000000000000000, -4.641694744755429877E-16 ) ) ;
#60 = CARTESIAN_POINT ( 'NONE',  ( 0.0000000000000000000, 0.0000000000000000000, 0.0000000000000000000 ) ) ;
#61 = CALENDAR_DATE ( 2021, 26, 11 ) ;
#62 = CC_DESIGN_PERSON_AND_ORGANIZATION_ASSIGNMENT ( #22, #6, ( #118 ) ) ;
#63 = APPROVAL_ROLE ( '' ) ;
#64 = CC_DESIGN_PERSON_AND_ORGANIZATION_ASSIGNMENT ( #65, #119, ( #211 ) ) ;
#65 = PERSON_AND_ORGANIZATION ( #162, #224 ) ;
#66 = APPROVAL_DATE_TIME ( #104, #18 ) ;
#67 = AXIS2_PLACEMENT_3D ( 'NONE', #3, #108, #1 ) ;
#68 = ORIENTED_EDGE ( 'NONE', *, *, #159, .F. ) ;
#69 = DATE_AND_TIME ( #167, #46 ) ;
#70 = PERSON_AND_ORGANIZATION ( #162, #224 ) ;
#71 = CC_DESIGN_APPROVAL ( #18, ( #165 ) ) ;
#72 = APPROVAL ( #142, 'UNSPECIFIED' ) ;
#73 = AXIS2_PLACEMENT_3D ( 'NONE', #190, #154, #175 ) ;
#74 = VERTEX_POINT ( 'NONE', #168 ) ;
#75 = EDGE_LOOP ( 'NONE', ( #238 ) ) ;
#76 = DIRECTION ( 'NONE',  ( -1.657711786591178095E-30, 1.000000000000000000, -4.747875258988049642E-16 ) ) ;
#77 = EDGE_CURVE ( 'NONE', #202, #202, #218, .T. ) ;
#78 = FACE_OUTER_BOUND ( 'NONE', #43, .T. ) ;
#79 = CARTESIAN_POINT ( 'NONE',  ( 0.0000000000000000000, 0.0000000000000000000, 0.0000000000000000000 ) ) ;
#80 = DIRECTION ( 'NONE',  ( -3.491481338843133355E-15, 9.031770143711729009E-17, -1.000000000000000000 ) ) ;
#81 = DIRECTION ( 'NONE',  ( 3.153425691349006731E-31, 1.000000000000000000, 9.031770143711729009E-17 ) ) ;
#82 = AXIS2_PLACEMENT_3D ( 'NONE', #113, #84, #235 ) ;
#83 = DIRECTION ( 'NONE',  ( 0.0000000000000000000, 1.000000000000000000, 0.0000000000000000000 ) ) ;
#84 = DIRECTION ( 'NONE',  ( 3.491481338843133355E-15, -9.031770143711729009E-17, 1.000000000000000000 ) ) ;
#85 = DATE_TIME_ROLE ( 'creation_date' ) ;
#86 = DIRECTION ( 'NONE',  ( -3.491481338843133355E-15, 9.031770143711729009E-17, -1.000000000000000000 ) ) ;
#87 = DESIGN_CONTEXT ( 'detailed design', #161, 'design' ) ;
#88 = DATE_AND_TIME ( #61, #25 ) ;
#89 = ADVANCED_FACE ( 'NONE', ( #44, #78 ), #5, .T. ) ;
#90 = CALENDAR_DATE ( 2021, 26, 11 ) ;
#91 = CIRCLE ( 'NONE', #146, 2.218999999999999417 ) ;
#92 = EDGE_LOOP ( 'NONE', ( #226 ) ) ;
#93 = ADVANCED_FACE ( 'NONE', ( #186 ), #57, .T. ) ;
#94 = FACE_BOUND ( 'NONE', #177, .T. ) ;
#95 = DIRECTION ( 'NONE',  ( -3.491481338843133355E-15, 9.031770143711729009E-17, -1.000000000000000000 ) ) ;
#96 = DIRECTION ( 'NONE',  ( -2.777366301054158451E-30, 1.000000000000000000, -7.817591149061800508E-16 ) ) ;
#97 = ORIENTED_EDGE ( 'NONE', *, *, #123, .T. ) ;
#98 = APPROVAL_ROLE ( '' ) ;
#99 = CIRCLE ( 'NONE', #198, 2.218999999999998529 ) ;
#100 = FACE_OUTER_BOUND ( 'NONE', #56, .T. ) ;
#101 = LOCAL_TIME ( 11, 2, 52.00000000000000000, #140 ) ;
#102 = APPROVAL_PERSON_ORGANIZATION ( #35, #215, #63 ) ;
#103 = PLANE ( 'NONE',  #55 ) ;
#104 = DATE_AND_TIME ( #90, #180 ) ;
#105 = VERTEX_POINT ( 'NONE', #220 ) ;
#106 = EDGE_LOOP ( 'NONE', ( #166 ) ) ;
#107 = AXIS2_PLACEMENT_3D ( 'NONE', #138, #174, #76 ) ;
#108 = DIRECTION ( 'NONE',  ( -3.491481338843133355E-15, 9.031770143711729009E-17, -1.000000000000000000 ) ) ;
#109 = PLANE ( 'NONE',  #219 ) ;
#110 = APPLICATION_CONTEXT ( 'configuration controlled 3d designs of mechanical parts and assemblies' ) ;
#111 = DIRECTION ( 'NONE',  ( 3.491481338843133355E-15, 4.747875258988049642E-16, 1.000000000000000000 ) ) ;
#112 = APPROVAL_PERSON_ORGANIZATION ( #70, #18, #98 ) ;
#113 = CARTESIAN_POINT ( 'NONE',  ( 2.793185071074506684E-13, -7.225416114969383207E-15, 80.00000000000000000 ) ) ;
#114 = PRODUCT_DEFINITION ( 'UNKNOWN', '', #211, #87 ) ;
#115 = APPROVAL_PERSON_ORGANIZATION ( #195, #72, #8 ) ;
#116 = DIRECTION ( 'NONE',  ( 3.491481338843133355E-15, 4.747875258988049642E-16, 1.000000000000000000 ) ) ;
#117 = FACE_BOUND ( 'NONE', #75, .T. ) ;
#118 = PRODUCT ( '321347', '321347', '', ( #228 ) ) ;
#119 = PERSON_AND_ORGANIZATION_ROLE ( 'design_supplier' ) ;
#120 = CARTESIAN_POINT ( 'NONE',  ( 2.779219145719134403E-13, -7.189289034394536528E-15, 79.60000000000000853 ) ) ;
#121 = CALENDAR_DATE ( 2021, 26, 11 ) ;
#122 = VERTEX_POINT ( 'NONE', #194 ) ;
#123 = EDGE_CURVE ( 'NONE', #105, #105, #99, .T. ) ;
#124 = APPROVAL_DATE_TIME ( #88, #72 ) ;
#125 = APPROVAL_DATE_TIME ( #217, #215 ) ;
#126 = AXIS2_PLACEMENT_3D ( 'NONE', #27, #86, #216 ) ;
#127 = ORIENTED_EDGE ( 'NONE', *, *, #123, .F. ) ;
#128 = ORIENTED_EDGE ( 'NONE', *, *, #153, .F. ) ;
#129 = CARTESIAN_POINT ( 'NONE',  ( 2.779219145719134403E-13, 1.999999999999988010, 79.60000000000000853 ) ) ;
#130 = EDGE_LOOP ( 'NONE', ( #128 ) ) ;
#131 = FACE_OUTER_BOUND ( 'NONE', #145, .T. ) ;
#132 = CIRCLE ( 'NONE', #52, 2.218999999999991868 ) ;
#133 = CARTESIAN_POINT ( 'NONE',  ( 1.396592535537256498E-15, 1.899150103595224442E-16, 0.4000000000000009659 ) ) ;
#134 = CARTESIAN_POINT ( 'NONE',  ( 0.0000000000000000000, 0.0000000000000000000, 0.0000000000000000000 ) ) ;
#135 = DIRECTION ( 'NONE',  ( 0.0000000000000000000, 0.0000000000000000000, 1.000000000000000000 ) ) ;
#136 = FACE_OUTER_BOUND ( 'NONE', #173, .T. ) ;
#137 = VERTEX_POINT ( 'NONE', #221 ) ;
#138 = CARTESIAN_POINT ( 'NONE',  ( 3.295630315954930417E-30, 4.481548122802781047E-31, 9.439060376152272479E-16 ) ) ;
#139 = DIRECTION ( 'NONE',  ( -3.491481338843133355E-15, 9.031770143711729009E-17, -1.000000000000000000 ) ) ;
#140 = COORDINATED_UNIVERSAL_TIME_OFFSET ( 1, 0, .AHEAD. ) ;
#141 = ADVANCED_FACE ( 'NONE', ( #136, #188 ), #149, .T. ) ;
#142 = APPROVAL_STATUS ( 'not_yet_approved' ) ;
#143 = CIRCLE ( 'NONE', #155, 1.999999999999991784 ) ;
#144 = ORIENTED_EDGE ( 'NONE', *, *, #31, .T. ) ;
#145 = EDGE_LOOP ( 'NONE', ( #97 ) ) ;
#146 = AXIS2_PLACEMENT_3D ( 'NONE', #205, #80, #83 ) ;
#147 = PERSON_AND_ORGANIZATION_ROLE ( 'classification_officer' ) ;
#148 = ORIENTED_EDGE ( 'NONE', *, *, #153, .T. ) ;
#149 = CYLINDRICAL_SURFACE ( 'NONE', #172, 2.218999999999995421 ) ;
#150 = ADVANCED_FACE ( 'NONE', ( #131, #94 ), #33, .T. ) ;
#151 = FACE_OUTER_BOUND ( 'NONE', #21, .T. ) ;
#152 = DIRECTION ( 'NONE',  ( 0.0000000000000000000, 1.000000000000000000, 0.0000000000000000000 ) ) ;
#153 = EDGE_CURVE ( 'NONE', #225, #225, #132, .T. ) ;
#154 = DIRECTION ( 'NONE',  ( -3.491481338843133355E-15, -4.747875258988049642E-16, -1.000000000000000000 ) ) ;
#155 = AXIS2_PLACEMENT_3D ( 'NONE', #242, #243, #14 ) ;
#156 = AXIS2_PLACEMENT_3D ( 'NONE', #79, #135, #15 ) ;
#157 = UNCERTAINTY_MEASURE_WITH_UNIT (LENGTH_MEASURE( 1.000000000000000082E-05 ), #187, 'distance_accuracy_value', 'NONE');
#158 = APPROVAL_STATUS ( 'not_yet_approved' ) ;
#159 = EDGE_CURVE ( 'NONE', #137, #137, #91, .T. ) ;
#160 = PERSON_AND_ORGANIZATION ( #162, #224 ) ;
#161 = APPLICATION_CONTEXT ( 'configuration controlled 3d designs of mechanical parts and assemblies' ) ;
#162 = PERSON ( 'UNSPECIFIED', 'UNSPECIFIED', 'UNSPECIFIED', ('UNSPECIFIED'), ('UNSPECIFIED'), ('UNSPECIFIED') ) ;
#163 = PERSON_AND_ORGANIZATION_ROLE ( 'creator' ) ;
#164 = ADVANCED_FACE ( 'NONE', ( #230 ), #47, .T. ) ;
#165 = SECURITY_CLASSIFICATION ( '', '', #26 ) ;
#166 = ORIENTED_EDGE ( 'NONE', *, *, #77, .T. ) ;
#167 = CALENDAR_DATE ( 2021, 26, 11 ) ;
#168 = CARTESIAN_POINT ( 'NONE',  ( 4.885231259955590439E-14, 1.999999999999990452, 13.99185842870425134 ) ) ;
#169 = EDGE_LOOP ( 'NONE', ( #127 ) ) ;
#170 = CC_DESIGN_PERSON_AND_ORGANIZATION_ASSIGNMENT ( #234, #199, ( #114 ) ) ;
#171 = LOCAL_TIME ( 11, 2, 52.00000000000000000, #181 ) ;
#172 = AXIS2_PLACEMENT_3D ( 'NONE', #134, #209, #178 ) ;
#173 = EDGE_LOOP ( 'NONE', ( #148 ) ) ;
#174 = DIRECTION ( 'NONE',  ( -3.491481338843133355E-15, -4.747875258988049642E-16, -1.000000000000000000 ) ) ;
#175 = DIRECTION ( 'NONE',  ( -1.657711786591178446E-30, 1.000000000000000000, -4.747875258988049642E-16 ) ) ;
#176 = DIRECTION ( 'NONE',  ( -3.491481338843133355E-15, 9.031770143711729009E-17, -1.000000000000000000 ) ) ;
#177 = EDGE_LOOP ( 'NONE', ( #203 ) ) ;
#178 = DIRECTION ( 'NONE',  ( -1.657711786591178446E-30, 1.000000000000000000, -4.747875258988048656E-16 ) ) ;
#179 = AXIS2_PLACEMENT_3D ( 'NONE', #60, #176, #81 ) ;
#180 = LOCAL_TIME ( 11, 2, 52.00000000000000000, #29 ) ;
#181 = COORDINATED_UNIVERSAL_TIME_OFFSET ( 1, 0, .AHEAD. ) ;
#182 = ADVANCED_FACE ( 'NONE', ( #117, #214 ), #10, .T. ) ;
#183 = DATE_TIME_ROLE ( 'classification_date' ) ;
#184 = CC_DESIGN_APPROVAL ( #72, ( #114 ) ) ;
#185 =( GEOMETRIC_REPRESENTATION_CONTEXT ( 3 ) GLOBAL_UNCERTAINTY_ASSIGNED_CONTEXT ( ( #157 ) ) GLOBAL_UNIT_ASSIGNED_CONTEXT ( ( #187, #58, #189 ) ) REPRESENTATION_CONTEXT ( 'NONE', 'WORKASPACE' ) );
#186 = FACE_OUTER_BOUND ( 'NONE', #106, .T. ) ;
#187 =( LENGTH_UNIT ( ) NAMED_UNIT ( * ) SI_UNIT ( .MILLI., .METRE. ) );
#188 = FACE_OUTER_BOUND ( 'NONE', #169, .T. ) ;
#189 =( NAMED_UNIT ( * ) SI_UNIT ( $, .STERADIAN. ) SOLID_ANGLE_UNIT ( ) );
#190 = CARTESIAN_POINT ( 'NONE',  ( -1.647815157977465209E-30, 1.988059892324149036, -4.719530188076136240E-16 ) ) ;
#191 = CLOSED_SHELL ( 'NONE', ( #7, #141, #150, #93 ) ) ;
#192 = DIRECTION ( 'NONE',  ( 1.657711786591178095E-30, -1.000000000000000000, 4.747875258988049642E-16 ) ) ;
#193 = APPLICATION_PROTOCOL_DEFINITION ( 'international standard', 'config_control_design', 1994, #110 ) ;
#194 = CARTESIAN_POINT ( 'NONE',  ( 2.793185071074506684E-13, 1.599999999999987876, 80.00000000000000000 ) ) ;
#195 = PERSON_AND_ORGANIZATION ( #162, #224 ) ;
#196 = APPLICATION_PROTOCOL_DEFINITION ( 'international standard', 'config_control_design', 1994, #161 ) ;
#197 = DIRECTION ( 'NONE',  ( 0.0000000000000000000, 1.000000000000000000, 0.0000000000000000000 ) ) ;
#198 = AXIS2_PLACEMENT_3D ( 'NONE', #133, #212, #59 ) ;
#199 = PERSON_AND_ORGANIZATION_ROLE ( 'creator' ) ;
#200 = EDGE_CURVE ( 'NONE', #39, #39, #210, .T. ) ;
#201 = SHAPE_DEFINITION_REPRESENTATION ( #204, #13 ) ;
#202 = VERTEX_POINT ( 'NONE', #236 ) ;
#203 = ORIENTED_EDGE ( 'NONE', *, *, #77, .F. ) ;
#204 = PRODUCT_DEFINITION_SHAPE ( 'NONE', 'NONE',  #114 ) ;
#205 = CARTESIAN_POINT ( 'NONE',  ( 4.752792694666631458E-14, -1.229453260465210696E-15, 13.61253930184665073 ) ) ;
#206 = AXIS2_PLACEMENT_3D ( 'NONE', #227, #95, #152 ) ;
#207 = CARTESIAN_POINT ( 'NONE',  ( 4.752792694666632089E-14, 6.463063856324017678E-15, 13.61253930184665251 ) ) ;
#208 = DIRECTION ( 'NONE',  ( -3.491481338843133355E-15, -4.747875258988049642E-16, -1.000000000000000000 ) ) ;
#209 = DIRECTION ( 'NONE',  ( -3.491481338843133355E-15, -4.747875258988049642E-16, -1.000000000000000000 ) ) ;
#210 = CIRCLE ( 'NONE', #12, 1.999999999999995337 ) ;
#211 = PRODUCT_DEFINITION_FORMATION_WITH_SPECIFIED_SOURCE ( 'ANY', '', #118, .NOT_KNOWN. ) ;
#212 = DIRECTION ( 'NONE',  ( -3.491481338843133355E-15, -4.747875258988049642E-16, -1.000000000000000000 ) ) ;
#213 = CARTESIAN_POINT ( 'NONE',  ( 4.752792694666632089E-14, 2.218999999999998529, 13.61253930184665251 ) ) ;
#214 = FACE_OUTER_BOUND ( 'NONE', #92, .T. ) ;
#215 = APPROVAL ( #158, 'UNSPECIFIED' ) ;
#216 = DIRECTION ( 'NONE',  ( 0.0000000000000000000, 1.000000000000000000, 0.0000000000000000000 ) ) ;
#217 = DATE_AND_TIME ( #50, #171 ) ;
#218 = CIRCLE ( 'NONE', #107, 1.988059892324149036 ) ;
#219 = AXIS2_PLACEMENT_3D ( 'NONE', #207, #111, #229 ) ;
#220 = CARTESIAN_POINT ( 'NONE',  ( 1.396592535537252948E-15, 2.218999999999998529, 0.3999999999999999112 ) ) ;
#221 = CARTESIAN_POINT ( 'NONE',  ( 4.752792694666631458E-14, 2.218999999999998529, 13.61253930184665073 ) ) ;
#222 = PRODUCT_RELATED_PRODUCT_CATEGORY ( 'detail', '', ( #118 ) ) ;
#223 = ORIENTED_EDGE ( 'NONE', *, *, #200, .T. ) ;
#224 = ORGANIZATION ( 'UNSPECIFIED', 'UNSPECIFIED', '' ) ;
#225 = VERTEX_POINT ( 'NONE', #53 ) ;
#226 = ORIENTED_EDGE ( 'NONE', *, *, #200, .F. ) ;
#227 = CARTESIAN_POINT ( 'NONE',  ( 4.752792694666631458E-14, -1.229453260465210696E-15, 13.61253930184665073 ) ) ;
#228 = MECHANICAL_CONTEXT ( 'NONE', #110, 'mechanical' ) ;
#229 = DIRECTION ( 'NONE',  ( 1.657711786591178446E-30, -1.000000000000000000, 4.747875258988049642E-16 ) ) ;
#230 = FACE_OUTER_BOUND ( 'NONE', #20, .T. ) ;
#231 = AXIS2_PLACEMENT_3D ( 'NONE', #17, #116, #192 ) ;
#232 = CC_DESIGN_APPROVAL ( #215, ( #211 ) ) ;
#233 = CC_DESIGN_PERSON_AND_ORGANIZATION_ASSIGNMENT ( #160, #163, ( #211 ) ) ;
#234 = PERSON_AND_ORGANIZATION ( #162, #224 ) ;
#235 = DIRECTION ( 'NONE',  ( -3.153425691349006731E-31, -1.000000000000000000, -9.031770143711729009E-17 ) ) ;
#236 = CARTESIAN_POINT ( 'NONE',  ( 0.0000000000000000000, 1.988059892324149036, 0.0000000000000000000 ) ) ;
#237 = CC_DESIGN_PERSON_AND_ORGANIZATION_ASSIGNMENT ( #241, #147, ( #165 ) ) ;
#238 = ORIENTED_EDGE ( 'NONE', *, *, #2, .T. ) ;
#239 = ADVANCED_FACE ( 'NONE', ( #100 ), #103, .T. ) ;
#240 = EDGE_LOOP ( 'NONE', ( #144 ) ) ;
#241 = PERSON_AND_ORGANIZATION ( #162, #224 ) ;
#242 = CARTESIAN_POINT ( 'NONE',  ( 4.885231259955590439E-14, -1.263712492114123682E-15, 13.99185842870425134 ) ) ;
#243 = DIRECTION ( 'NONE',  ( -3.491481338843133355E-15, 9.031770143711729009E-17, -1.000000000000000000 ) ) ;
ENDSEC;
END-ISO-10303-21;
