ISO-10303-21;
HEADER;
FILE_DESCRIPTION (( 'STEP AP203' ),
    '1' );
FILE_NAME ('321346.step',
    '2021-11-26T10:02:51',
    ( '' ),
    ( '' ),
    'SwSTEP 2.0',
    'SolidWorks 2019',
    '' );
FILE_SCHEMA (( 'CONFIG_CONTROL_DESIGN' ));
ENDSEC;

DATA;
#1 = PERSON_AND_ORGANIZATION_ROLE ( 'design_owner' ) ;
#2 = PERSON_AND_ORGANIZATION ( #85, #80 ) ;
#3 = AXIS2_PLACEMENT_3D ( 'NONE', #176, #215, #43 ) ;
#4 = SECURITY_CLASSIFICATION_LEVEL ( 'unclassified' ) ;
#5 = CARTESIAN_POINT ( 'NONE',  ( 2.779219145719134403E-13, -7.189289034394536528E-15, 79.60000000000000853 ) ) ;
#6 = ORIENTED_EDGE ( 'NONE', *, *, #74, .T. ) ;
#7 = AXIS2_PLACEMENT_3D ( 'NONE', #31, #84, #206 ) ;
#8 = FACE_OUTER_BOUND ( 'NONE', #78, .T. ) ;
#9 = DIRECTION ( 'NONE',  ( 3.491481338843133355E-15, 4.743299354318156263E-16, 1.000000000000000000 ) ) ;
#10 = DIRECTION ( 'NONE',  ( -3.491481338843133355E-15, 9.031770143711729009E-17, -1.000000000000000000 ) ) ;
#11 = CIRCLE ( 'NONE', #69, 1.999999999999991784 ) ;
#12 = CARTESIAN_POINT ( 'NONE',  ( 0.0000000000000000000, 1.983059892324148699, 0.0000000000000000000 ) ) ;
#13 = AXIS2_PLACEMENT_3D ( 'NONE', #195, #192, #216 ) ;
#14 = MANIFOLD_SOLID_BREP ( 'Corps-Déplacer/Copier1[2]', #171 ) ;
#15 = EDGE_CURVE ( 'NONE', #105, #105, #165, .T. ) ;
#16 = PLANE ( 'NONE',  #159 ) ;
#17 = PERSON_AND_ORGANIZATION_ROLE ( 'creator' ) ;
#18 = PRODUCT_DEFINITION_SHAPE ( 'NONE', 'NONE',  #137 ) ;
#19 = DATE_AND_TIME ( #130, #166 ) ;
#20 = CIRCLE ( 'NONE', #86, 1.999999999999995337 ) ;
#21 = PERSON_AND_ORGANIZATION ( #85, #80 ) ;
#22 = EDGE_LOOP ( 'NONE', ( #23 ) ) ;
#23 = ORIENTED_EDGE ( 'NONE', *, *, #83, .T. ) ;
#24 = CC_DESIGN_PERSON_AND_ORGANIZATION_ASSIGNMENT ( #75, #170, ( #208 ) ) ;
#25 = DIRECTION ( 'NONE',  ( -3.491481338843133355E-15, 9.031770143711729009E-17, -1.000000000000000000 ) ) ;
#26 = APPROVAL_PERSON_ORGANIZATION ( #151, #32, #172 ) ;
#27 = CARTESIAN_POINT ( 'NONE',  ( 0.0000000000000000000, 0.0000000000000000000, 0.0000000000000000000 ) ) ;
#28 = FACE_BOUND ( 'NONE', #119, .T. ) ;
#29 = CYLINDRICAL_SURFACE ( 'NONE', #233, 2.213999999999995083 ) ;
#30 = ADVANCED_FACE ( 'NONE', ( #54 ), #158, .T. ) ;
#31 = CARTESIAN_POINT ( 'NONE',  ( 2.779219145719134403E-13, -7.189289034394536528E-15, 79.60000000000000853 ) ) ;
#32 = APPROVAL ( #207, 'UNSPECIFIED' ) ;
#33 = FACE_OUTER_BOUND ( 'NONE', #234, .T. ) ;
#34 = DATE_TIME_ROLE ( 'classification_date' ) ;
#35 = CC_DESIGN_DATE_AND_TIME_ASSIGNMENT ( #111, #110, ( #137 ) ) ;
#36 = AXIS2_PLACEMENT_3D ( 'NONE', #203, #169, #186 ) ;
#37 = COORDINATED_UNIVERSAL_TIME_OFFSET ( 1, 0, .AHEAD. ) ;
#38 = DIRECTION ( 'NONE',  ( -3.491481338843133355E-15, 9.031770143711729009E-17, -1.000000000000000000 ) ) ;
#39 = ADVANCED_FACE ( 'NONE', ( #92 ), #181, .T. ) ;
#40 = EDGE_LOOP ( 'NONE', ( #231 ) ) ;
#41 = AXIS2_PLACEMENT_3D ( 'NONE', #118, #25, #100 ) ;
#42 = SHAPE_DEFINITION_REPRESENTATION ( #18, #187 ) ;
#43 = DIRECTION ( 'NONE',  ( 1.656114118014852165E-30, -1.000000000000000000, 4.743299354318156263E-16 ) ) ;
#44 = CARTESIAN_POINT ( 'NONE',  ( 2.793185071074506684E-13, -7.225416114969383207E-15, 80.00000000000000000 ) ) ;
#45 = EDGE_CURVE ( 'NONE', #183, #183, #64, .T. ) ;
#46 = DIRECTION ( 'NONE',  ( 0.0000000000000000000, 1.000000000000000000, 0.0000000000000000000 ) ) ;
#47 = COORDINATED_UNIVERSAL_TIME_OFFSET ( 1, 0, .AHEAD. ) ;
#48 = DIRECTION ( 'NONE',  ( 3.491481338843133355E-15, -9.031770143711729009E-17, 1.000000000000000000 ) ) ;
#49 = VERTEX_POINT ( 'NONE', #185 ) ;
#50 = APPROVAL_PERSON_ORGANIZATION ( #230, #141, #193 ) ;
#51 = FACE_BOUND ( 'NONE', #98, .T. ) ;
#52 = FACE_OUTER_BOUND ( 'NONE', #138, .T. ) ;
#53 = DATE_AND_TIME ( #223, #200 ) ;
#54 = FACE_OUTER_BOUND ( 'NONE', #22, .T. ) ;
#55 = CALENDAR_DATE ( 2021, 26, 11 ) ;
#56 = CARTESIAN_POINT ( 'NONE',  ( 3.284173484547036337E-30, 4.461664393108947789E-31, 9.406246706835365710E-16 ) ) ;
#57 =( NAMED_UNIT ( * ) SI_UNIT ( $, .STERADIAN. ) SOLID_ANGLE_UNIT ( ) );
#58 = CARTESIAN_POINT ( 'NONE',  ( -1.642086742273518169E-30, 1.983059892324148699, -4.703123353417682855E-16 ) ) ;
#59 = APPROVAL_DATE_TIME ( #235, #140 ) ;
#60 = DIRECTION ( 'NONE',  ( -3.491481338843133355E-15, -4.743299354318156263E-16, -1.000000000000000000 ) ) ;
#61 = AXIS2_PLACEMENT_3D ( 'NONE', #103, #81, #107 ) ;
#62 = ORIENTED_EDGE ( 'NONE', *, *, #210, .F. ) ;
#63 = VERTEX_POINT ( 'NONE', #139 ) ;
#64 = CIRCLE ( 'NONE', #41, 2.213999999999999524 ) ;
#65 = APPROVAL_ROLE ( '' ) ;
#66 = EDGE_CURVE ( 'NONE', #49, #49, #124, .T. ) ;
#67 = CARTESIAN_POINT ( 'NONE',  ( 0.0000000000000000000, 0.0000000000000000000, 0.0000000000000000000 ) ) ;
#68 = APPLICATION_CONTEXT ( 'configuration controlled 3d designs of mechanical parts and assemblies' ) ;
#69 = AXIS2_PLACEMENT_3D ( 'NONE', #122, #126, #46 ) ;
#70 = APPROVAL_PERSON_ORGANIZATION ( #108, #140, #65 ) ;
#71 = CC_DESIGN_PERSON_AND_ORGANIZATION_ASSIGNMENT ( #212, #17, ( #218 ) ) ;
#72 = DIRECTION ( 'NONE',  ( 3.153425691349006731E-31, 1.000000000000000000, 9.031770143711729009E-17 ) ) ;
#73 = DIRECTION ( 'NONE',  ( 1.000000000000000000, 0.0000000000000000000, 0.0000000000000000000 ) ) ;
#74 = EDGE_CURVE ( 'NONE', #63, #63, #20, .T. ) ;
#75 = PERSON_AND_ORGANIZATION ( #85, #80 ) ;
#76 = ORIENTED_EDGE ( 'NONE', *, *, #45, .T. ) ;
#77 = AXIS2_PLACEMENT_3D ( 'NONE', #162, #48, #123 ) ;
#78 = EDGE_LOOP ( 'NONE', ( #116 ) ) ;
#79 = ORIENTED_EDGE ( 'NONE', *, *, #15, .F. ) ;
#80 = ORGANIZATION ( 'UNSPECIFIED', 'UNSPECIFIED', '' ) ;
#81 = DIRECTION ( 'NONE',  ( -3.491481338843133355E-15, -4.743299354318156263E-16, -1.000000000000000000 ) ) ;
#82 = CARTESIAN_POINT ( 'NONE',  ( 4.755816406202908962E-14, 2.213999999999998192, 13.62119955588449294 ) ) ;
#83 = EDGE_CURVE ( 'NONE', #217, #217, #238, .T. ) ;
#84 = DIRECTION ( 'NONE',  ( -3.491481338843133355E-15, 9.031770143711729009E-17, -1.000000000000000000 ) ) ;
#85 = PERSON ( 'UNSPECIFIED', 'UNSPECIFIED', 'UNSPECIFIED', ('UNSPECIFIED'), ('UNSPECIFIED'), ('UNSPECIFIED') ) ;
#86 = AXIS2_PLACEMENT_3D ( 'NONE', #5, #38, #229 ) ;
#87 = LOCAL_TIME ( 11, 2, 51.00000000000000000, #213 ) ;
#88 = PLANE ( 'NONE',  #77 ) ;
#89 = DIRECTION ( 'NONE',  ( 1.656114118014852866E-30, -1.000000000000000000, 4.743299354318155277E-16 ) ) ;
#90 = PERSON_AND_ORGANIZATION_ROLE ( 'creator' ) ;
#91 = DIRECTION ( 'NONE',  ( 0.0000000000000000000, 0.0000000000000000000, 1.000000000000000000 ) ) ;
#92 = FACE_OUTER_BOUND ( 'NONE', #214, .T. ) ;
#93 = CC_DESIGN_DATE_AND_TIME_ASSIGNMENT ( #53, #34, ( #208 ) ) ;
#94 = COORDINATED_UNIVERSAL_TIME_OFFSET ( 1, 0, .AHEAD. ) ;
#95 = CIRCLE ( 'NONE', #61, 2.213999999999998636 ) ;
#96 = EDGE_LOOP ( 'NONE', ( #178 ) ) ;
#97 = MANIFOLD_SOLID_BREP ( 'Corps-Déplacer/Copier1[1]', #135 ) ;
#98 = EDGE_LOOP ( 'NONE', ( #196 ) ) ;
#99 = EDGE_CURVE ( 'NONE', #163, #163, #11, .T. ) ;
#100 = DIRECTION ( 'NONE',  ( 0.0000000000000000000, 1.000000000000000000, 0.0000000000000000000 ) ) ;
#101 = FACE_OUTER_BOUND ( 'NONE', #40, .T. ) ;
#102 = ADVANCED_FACE ( 'NONE', ( #52, #144 ), #29, .T. ) ;
#103 = CARTESIAN_POINT ( 'NONE',  ( 1.396592535537256498E-15, 1.897319741727266893E-16, 0.4000000000000009659 ) ) ;
#104 = CC_DESIGN_PERSON_AND_ORGANIZATION_ASSIGNMENT ( #2, #1, ( #194 ) ) ;
#105 = VERTEX_POINT ( 'NONE', #82 ) ;
#106 = FACE_BOUND ( 'NONE', #96, .T. ) ;
#107 = DIRECTION ( 'NONE',  ( -1.652785408462398697E-30, 1.000000000000000000, -4.652177343546657375E-16 ) ) ;
#108 = PERSON_AND_ORGANIZATION ( #85, #80 ) ;
#109 = AXIS2_PLACEMENT_3D ( 'NONE', #44, #131, #211 ) ;
#110 = DATE_TIME_ROLE ( 'creation_date' ) ;
#111 = DATE_AND_TIME ( #134, #153 ) ;
#112 = EDGE_LOOP ( 'NONE', ( #225 ) ) ;
#113 = CARTESIAN_POINT ( 'NONE',  ( 0.0000000000000000000, 0.0000000000000000000, 0.0000000000000000000 ) ) ;
#114 = DIRECTION ( 'NONE',  ( -3.491481338843133355E-15, -4.743299354318156263E-16, -1.000000000000000000 ) ) ;
#115 = AXIS2_PLACEMENT_3D ( 'NONE', #56, #114, #146 ) ;
#116 = ORIENTED_EDGE ( 'NONE', *, *, #66, .F. ) ;
#117 = ADVANCED_FACE ( 'NONE', ( #106, #202 ), #148, .T. ) ;
#118 = CARTESIAN_POINT ( 'NONE',  ( 4.755816406202908962E-14, -1.230235434703770387E-15, 13.62119955588449294 ) ) ;
#119 = EDGE_LOOP ( 'NONE', ( #161 ) ) ;
#120 = CONICAL_SURFACE ( 'NONE', #184, 1.983059892324148699, 0.5235987755982979275 ) ;
#121 = VERTEX_POINT ( 'NONE', #182 ) ;
#122 = CARTESIAN_POINT ( 'NONE',  ( 4.885231259955590439E-14, -1.263712492114123682E-15, 13.99185842870425134 ) ) ;
#123 = DIRECTION ( 'NONE',  ( -3.153425691349006731E-31, -1.000000000000000000, -9.031770143711729009E-17 ) ) ;
#124 = CIRCLE ( 'NONE', #109, 1.599999999999994982 ) ;
#125 = ADVANCED_FACE ( 'NONE', ( #168, #28 ), #120, .T. ) ;
#126 = DIRECTION ( 'NONE',  ( -3.491481338843133355E-15, 9.031770143711729009E-17, -1.000000000000000000 ) ) ;
#127 = CARTESIAN_POINT ( 'NONE',  ( 3.284173484547036337E-30, 4.461664393108947789E-31, 9.406246706835365710E-16 ) ) ;
#128 = CC_DESIGN_PERSON_AND_ORGANIZATION_ASSIGNMENT ( #21, #175, ( #218 ) ) ;
#129 = APPROVAL_DATE_TIME ( #19, #32 ) ;
#130 = CALENDAR_DATE ( 2021, 26, 11 ) ;
#131 = DIRECTION ( 'NONE',  ( -3.491481338843133355E-15, 9.031770143711729009E-17, -1.000000000000000000 ) ) ;
#132 = APPROVAL_DATE_TIME ( #156, #141 ) ;
#133 = EDGE_LOOP ( 'NONE', ( #62 ) ) ;
#134 = CALENDAR_DATE ( 2021, 26, 11 ) ;
#135 = CLOSED_SHELL ( 'NONE', ( #237, #117, #191, #167, #180 ) ) ;
#136 = DIRECTION ( 'NONE',  ( -1.656114118014852165E-30, 1.000000000000000000, -4.743299354318156263E-16 ) ) ;
#137 = PRODUCT_DEFINITION ( 'UNKNOWN', '', #218, #241 ) ;
#138 = EDGE_LOOP ( 'NONE', ( #155 ) ) ;
#139 = CARTESIAN_POINT ( 'NONE',  ( 2.779219145719134403E-13, 1.999999999999988010, 79.60000000000000853 ) ) ;
#140 = APPROVAL ( #224, 'UNSPECIFIED' ) ;
#141 = APPROVAL ( #228, 'UNSPECIFIED' ) ;
#142 = AXIS2_PLACEMENT_3D ( 'NONE', #27, #219, #222 ) ;
#143 =( LENGTH_UNIT ( ) NAMED_UNIT ( * ) SI_UNIT ( .MILLI., .METRE. ) );
#144 = FACE_OUTER_BOUND ( 'NONE', #133, .T. ) ;
#145 = AXIS2_PLACEMENT_3D ( 'NONE', #113, #91, #73 ) ;
#146 = DIRECTION ( 'NONE',  ( -1.656114118014852866E-30, 1.000000000000000000, -4.743299354318155277E-16 ) ) ;
#147 = CYLINDRICAL_SURFACE ( 'NONE', #142, 1.999999999999993561 ) ;
#148 = CONICAL_SURFACE ( 'NONE', #7, 1.999999999999995337, 0.7853981633974516097 ) ;
#149 = COORDINATED_UNIVERSAL_TIME_OFFSET ( 1, 0, .AHEAD. ) ;
#150 = UNCERTAINTY_MEASURE_WITH_UNIT (LENGTH_MEASURE( 1.000000000000000082E-05 ), #143, 'distance_accuracy_value', 'NONE');
#151 = PERSON_AND_ORGANIZATION ( #85, #80 ) ;
#152 = EDGE_LOOP ( 'NONE', ( #197 ) ) ;
#153 = LOCAL_TIME ( 11, 2, 51.00000000000000000, #37 ) ;
#154 = MECHANICAL_CONTEXT ( 'NONE', #179, 'mechanical' ) ;
#155 = ORIENTED_EDGE ( 'NONE', *, *, #15, .T. ) ;
#156 = DATE_AND_TIME ( #55, #87 ) ;
#157 = ORIENTED_EDGE ( 'NONE', *, *, #45, .F. ) ;
#158 = PLANE ( 'NONE',  #174 ) ;
#159 = AXIS2_PLACEMENT_3D ( 'NONE', #242, #10, #72 ) ;
#160 = LOCAL_TIME ( 11, 2, 51.00000000000000000, #47 ) ;
#161 = ORIENTED_EDGE ( 'NONE', *, *, #83, .F. ) ;
#162 = CARTESIAN_POINT ( 'NONE',  ( 2.793185071074506684E-13, -7.225416114969383207E-15, 80.00000000000000000 ) ) ;
#163 = VERTEX_POINT ( 'NONE', #240 ) ;
#164 = CC_DESIGN_APPROVAL ( #140, ( #208 ) ) ;
#165 = CIRCLE ( 'NONE', #13, 2.213999999999991530 ) ;
#166 = LOCAL_TIME ( 11, 2, 51.00000000000000000, #94 ) ;
#167 = ADVANCED_FACE ( 'NONE', ( #51, #204 ), #205, .T. ) ;
#168 = FACE_OUTER_BOUND ( 'NONE', #152, .T. ) ;
#169 = DIRECTION ( 'NONE',  ( -3.491481338843133355E-15, 9.031770143711729009E-17, -1.000000000000000000 ) ) ;
#170 = PERSON_AND_ORGANIZATION_ROLE ( 'classification_officer' ) ;
#171 = CLOSED_SHELL ( 'NONE', ( #39, #102, #125, #30 ) ) ;
#172 = APPROVAL_ROLE ( '' ) ;
#173 = EDGE_LOOP ( 'NONE', ( #157 ) ) ;
#174 = AXIS2_PLACEMENT_3D ( 'NONE', #58, #60, #136 ) ;
#175 = PERSON_AND_ORGANIZATION_ROLE ( 'design_supplier' ) ;
#176 = CARTESIAN_POINT ( 'NONE',  ( 4.755816406202908331E-14, 6.460942705846567590E-15, 13.62119955588449116 ) ) ;
#177 = CC_DESIGN_PERSON_AND_ORGANIZATION_ASSIGNMENT ( #209, #90, ( #137 ) ) ;
#178 = ORIENTED_EDGE ( 'NONE', *, *, #66, .T. ) ;
#179 = APPLICATION_CONTEXT ( 'configuration controlled 3d designs of mechanical parts and assemblies' ) ;
#180 = ADVANCED_FACE ( 'NONE', ( #33 ), #16, .T. ) ;
#181 = PLANE ( 'NONE',  #3 ) ;
#182 = CARTESIAN_POINT ( 'NONE',  ( 1.396592535537252948E-15, 2.213999999999998636, 0.3999999999999999112 ) ) ;
#183 = VERTEX_POINT ( 'NONE', #236 ) ;
#184 = AXIS2_PLACEMENT_3D ( 'NONE', #127, #9, #89 ) ;
#185 = CARTESIAN_POINT ( 'NONE',  ( 2.793185071074506684E-13, 1.599999999999987876, 80.00000000000000000 ) ) ;
#186 = DIRECTION ( 'NONE',  ( 0.0000000000000000000, 1.000000000000000000, 0.0000000000000000000 ) ) ;
#187 = ADVANCED_BREP_SHAPE_REPRESENTATION ( '321346', ( #97, #14, #145 ), #190 ) ;
#188 =( NAMED_UNIT ( * ) PLANE_ANGLE_UNIT ( ) SI_UNIT ( $, .RADIAN. ) );
#189 = APPLICATION_PROTOCOL_DEFINITION ( 'international standard', 'config_control_design', 1994, #179 ) ;
#190 =( GEOMETRIC_REPRESENTATION_CONTEXT ( 3 ) GLOBAL_UNCERTAINTY_ASSIGNED_CONTEXT ( ( #150 ) ) GLOBAL_UNIT_ASSIGNED_CONTEXT ( ( #143, #188, #57 ) ) REPRESENTATION_CONTEXT ( 'NONE', 'WORKASPACE' ) );
#191 = ADVANCED_FACE ( 'NONE', ( #239, #101 ), #147, .T. ) ;
#192 = DIRECTION ( 'NONE',  ( -3.491481338843133355E-15, -4.743299354318156263E-16, -1.000000000000000000 ) ) ;
#193 = APPROVAL_ROLE ( '' ) ;
#194 = PRODUCT ( '321346', '321346', '', ( #154 ) ) ;
#195 = CARTESIAN_POINT ( 'NONE',  ( 4.755816406202909594E-14, 6.460942705846568379E-15, 13.62119955588449471 ) ) ;
#196 = ORIENTED_EDGE ( 'NONE', *, *, #99, .T. ) ;
#197 = ORIENTED_EDGE ( 'NONE', *, *, #210, .T. ) ;
#198 = PRODUCT_RELATED_PRODUCT_CATEGORY ( 'detail', '', ( #194 ) ) ;
#199 = EDGE_LOOP ( 'NONE', ( #6 ) ) ;
#200 = LOCAL_TIME ( 11, 2, 51.00000000000000000, #149 ) ;
#201 = DIRECTION ( 'NONE',  ( -1.656114118014852515E-30, 1.000000000000000000, -4.743299354318155277E-16 ) ) ;
#202 = FACE_OUTER_BOUND ( 'NONE', #112, .T. ) ;
#203 = CARTESIAN_POINT ( 'NONE',  ( 4.755816406202908962E-14, -1.230235434703770387E-15, 13.62119955588449294 ) ) ;
#204 = FACE_OUTER_BOUND ( 'NONE', #173, .T. ) ;
#205 = CONICAL_SURFACE ( 'NONE', #36, 2.213999999999999524, 0.5235987755982922653 ) ;
#206 = DIRECTION ( 'NONE',  ( 0.0000000000000000000, 1.000000000000000000, 0.0000000000000000000 ) ) ;
#207 = APPROVAL_STATUS ( 'not_yet_approved' ) ;
#208 = SECURITY_CLASSIFICATION ( '', '', #4 ) ;
#209 = PERSON_AND_ORGANIZATION ( #85, #80 ) ;
#210 = EDGE_CURVE ( 'NONE', #121, #121, #95, .T. ) ;
#211 = DIRECTION ( 'NONE',  ( 0.0000000000000000000, 1.000000000000000000, 0.0000000000000000000 ) ) ;
#212 = PERSON_AND_ORGANIZATION ( #85, #80 ) ;
#213 = COORDINATED_UNIVERSAL_TIME_OFFSET ( 1, 0, .AHEAD. ) ;
#214 = EDGE_LOOP ( 'NONE', ( #79 ) ) ;
#215 = DIRECTION ( 'NONE',  ( 3.491481338843133355E-15, 4.743299354318156263E-16, 1.000000000000000000 ) ) ;
#216 = DIRECTION ( 'NONE',  ( -2.783638582673522262E-30, 1.000000000000000000, -7.835246052289131550E-16 ) ) ;
#217 = VERTEX_POINT ( 'NONE', #12 ) ;
#218 = PRODUCT_DEFINITION_FORMATION_WITH_SPECIFIED_SOURCE ( 'ANY', '', #194, .NOT_KNOWN. ) ;
#219 = DIRECTION ( 'NONE',  ( -3.491481338843133355E-15, 9.031770143711729009E-17, -1.000000000000000000 ) ) ;
#220 = CC_DESIGN_SECURITY_CLASSIFICATION ( #208, ( #218 ) ) ;
#221 = DIRECTION ( 'NONE',  ( -3.491481338843133355E-15, -4.743299354318156263E-16, -1.000000000000000000 ) ) ;
#222 = DIRECTION ( 'NONE',  ( 3.153425691349006731E-31, 1.000000000000000000, 9.031770143711729009E-17 ) ) ;
#223 = CALENDAR_DATE ( 2021, 26, 11 ) ;
#224 = APPROVAL_STATUS ( 'not_yet_approved' ) ;
#225 = ORIENTED_EDGE ( 'NONE', *, *, #74, .F. ) ;
#226 = CC_DESIGN_APPROVAL ( #32, ( #137 ) ) ;
#227 = CC_DESIGN_APPROVAL ( #141, ( #218 ) ) ;
#228 = APPROVAL_STATUS ( 'not_yet_approved' ) ;
#229 = DIRECTION ( 'NONE',  ( 0.0000000000000000000, 1.000000000000000000, 0.0000000000000000000 ) ) ;
#230 = PERSON_AND_ORGANIZATION ( #85, #80 ) ;
#231 = ORIENTED_EDGE ( 'NONE', *, *, #99, .F. ) ;
#232 = CALENDAR_DATE ( 2021, 26, 11 ) ;
#233 = AXIS2_PLACEMENT_3D ( 'NONE', #67, #221, #201 ) ;
#234 = EDGE_LOOP ( 'NONE', ( #76 ) ) ;
#235 = DATE_AND_TIME ( #232, #160 ) ;
#236 = CARTESIAN_POINT ( 'NONE',  ( 4.755816406202908962E-14, 2.213999999999998192, 13.62119955588449294 ) ) ;
#237 = ADVANCED_FACE ( 'NONE', ( #8 ), #88, .T. ) ;
#238 = CIRCLE ( 'NONE', #115, 1.983059892324148699 ) ;
#239 = FACE_OUTER_BOUND ( 'NONE', #199, .T. ) ;
#240 = CARTESIAN_POINT ( 'NONE',  ( 4.885231259955590439E-14, 1.999999999999990452, 13.99185842870425134 ) ) ;
#241 = DESIGN_CONTEXT ( 'detailed design', #68, 'design' ) ;
#242 = CARTESIAN_POINT ( 'NONE',  ( 4.755816406202908331E-14, 2.213999999999998192, 13.62119955588449116 ) ) ;
#243 = APPLICATION_PROTOCOL_DEFINITION ( 'international standard', 'config_control_design', 1994, #68 ) ;
ENDSEC;
END-ISO-10303-21;
