ISO-10303-21;
HEADER;
FILE_DESCRIPTION (( 'STEP AP203' ),
    '1' );
FILE_NAME ('321345.step',
    '2021-11-26T10:02:51',
    ( '' ),
    ( '' ),
    'SwSTEP 2.0',
    'SolidWorks 2019',
    '' );
FILE_SCHEMA (( 'CONFIG_CONTROL_DESIGN' ));
ENDSEC;

DATA;
#1 = CC_DESIGN_APPROVAL ( #50, ( #133 ) ) ;
#2 = PLANE ( 'NONE',  #101 ) ;
#3 = CC_DESIGN_DATE_AND_TIME_ASSIGNMENT ( #97, #120, ( #185 ) ) ;
#4 = FACE_OUTER_BOUND ( 'NONE', #85, .T. ) ;
#5 = PLANE ( 'NONE',  #210 ) ;
#6 = PRODUCT ( '321345', '321345', '', ( #98 ) ) ;
#7 =( LENGTH_UNIT ( ) NAMED_UNIT ( * ) SI_UNIT ( .MILLI., .METRE. ) );
#8 = CALENDAR_DATE ( 2021, 26, 11 ) ;
#9 = PERSON_AND_ORGANIZATION ( #117, #153 ) ;
#10 = MANIFOLD_SOLID_BREP ( 'Corps-Déplacer/Copier1[1]', #25 ) ;
#11 = PERSON_AND_ORGANIZATION ( #117, #153 ) ;
#12 = EDGE_CURVE ( 'NONE', #147, #147, #157, .T. ) ;
#13 = DIRECTION ( 'NONE',  ( -1.656526434737778014E-30, 1.000000000000000000, -4.662707396384020827E-16 ) ) ;
#14 = CONICAL_SURFACE ( 'NONE', #67, 2.208999999999999631, 0.5235987755982934866 ) ;
#15 =( GEOMETRIC_REPRESENTATION_CONTEXT ( 3 ) GLOBAL_UNCERTAINTY_ASSIGNED_CONTEXT ( ( #222 ) ) GLOBAL_UNIT_ASSIGNED_CONTEXT ( ( #7, #172, #78 ) ) REPRESENTATION_CONTEXT ( 'NONE', 'WORKASPACE' ) );
#16 = CARTESIAN_POINT ( 'NONE',  ( 4.885231259955590439E-14, -1.263712492114123682E-15, 13.99185842870425134 ) ) ;
#17 = EDGE_LOOP ( 'NONE', ( #105 ) ) ;
#18 = ADVANCED_FACE ( 'NONE', ( #178, #107 ), #14, .T. ) ;
#19 = DIRECTION ( 'NONE',  ( -3.491481338843133355E-15, -4.738729264601231724E-16, -1.000000000000000000 ) ) ;
#20 = CARTESIAN_POINT ( 'NONE',  ( 2.779219145719134403E-13, -7.189289034394536528E-15, 79.60000000000000853 ) ) ;
#21 = CYLINDRICAL_SURFACE ( 'NONE', #224, 2.208999999999994746 ) ;
#22 = FACE_OUTER_BOUND ( 'NONE', #199, .T. ) ;
#23 = CARTESIAN_POINT ( 'NONE',  ( 4.758840117739186467E-14, 6.458821555369117501E-15, 13.62985980992234047 ) ) ;
#24 = DIRECTION ( 'NONE',  ( -3.491481338843133355E-15, -4.738729264601231724E-16, -1.000000000000000000 ) ) ;
#25 = CLOSED_SHELL ( 'NONE', ( #138, #86, #125, #18, #82 ) ) ;
#26 = DIRECTION ( 'NONE',  ( 0.0000000000000000000, 0.0000000000000000000, 1.000000000000000000 ) ) ;
#27 = PERSON_AND_ORGANIZATION ( #117, #153 ) ;
#28 = CC_DESIGN_PERSON_AND_ORGANIZATION_ASSIGNMENT ( #9, #66, ( #74 ) ) ;
#29 = AXIS2_PLACEMENT_3D ( 'NONE', #219, #184, #142 ) ;
#30 = ORIENTED_EDGE ( 'NONE', *, *, #62, .F. ) ;
#31 = ORIENTED_EDGE ( 'NONE', *, *, #168, .T. ) ;
#32 = ORIENTED_EDGE ( 'NONE', *, *, #189, .F. ) ;
#33 = AXIS2_PLACEMENT_3D ( 'NONE', #186, #58, #91 ) ;
#34 = ORIENTED_EDGE ( 'NONE', *, *, #12, .F. ) ;
#35 = ADVANCED_FACE ( 'NONE', ( #236 ), #87, .T. ) ;
#36 = ORIENTED_EDGE ( 'NONE', *, *, #189, .T. ) ;
#37 = CARTESIAN_POINT ( 'NONE',  ( 2.793185071074506684E-13, -7.225416114969383207E-15, 80.00000000000000000 ) ) ;
#38 = CC_DESIGN_SECURITY_CLASSIFICATION ( #133, ( #74 ) ) ;
#39 = DIRECTION ( 'NONE',  ( -3.491481338843133355E-15, 9.031770143711729009E-17, -1.000000000000000000 ) ) ;
#40 = CARTESIAN_POINT ( 'NONE',  ( 3.272736645840299055E-30, 4.441843279080769813E-31, 9.373490298890403175E-16 ) ) ;
#41 = DIRECTION ( 'NONE',  ( -1.654518479718504481E-30, 1.000000000000000000, -4.738729264601231724E-16 ) ) ;
#42 = CC_DESIGN_APPROVAL ( #72, ( #74 ) ) ;
#43 = CARTESIAN_POINT ( 'NONE',  ( 4.885231259955590439E-14, 1.999999999999990452, 13.99185842870425134 ) ) ;
#44 = APPROVAL_STATUS ( 'not_yet_approved' ) ;
#45 = AXIS2_PLACEMENT_3D ( 'NONE', #20, #39, #166 ) ;
#46 = PERSON_AND_ORGANIZATION ( #117, #153 ) ;
#47 = EDGE_CURVE ( 'NONE', #204, #204, #205, .T. ) ;
#48 = CARTESIAN_POINT ( 'NONE',  ( 6.842277657836020854E-46, 1.978059892324148139, 0.0000000000000000000 ) ) ;
#49 = DATE_AND_TIME ( #122, #64 ) ;
#50 = APPROVAL ( #221, 'UNSPECIFIED' ) ;
#51 = ORIENTED_EDGE ( 'NONE', *, *, #168, .F. ) ;
#52 = CARTESIAN_POINT ( 'NONE',  ( 1.396592535537256498E-15, 1.895491705840497078E-16, 0.4000000000000009659 ) ) ;
#53 = DIRECTION ( 'NONE',  ( 1.654518479718504481E-30, -1.000000000000000000, 4.738729264601231724E-16 ) ) ;
#54 = CC_DESIGN_APPROVAL ( #90, ( #185 ) ) ;
#55 = EDGE_LOOP ( 'NONE', ( #106 ) ) ;
#56 = DIRECTION ( 'NONE',  ( -1.654518479718504481E-30, 1.000000000000000000, -4.738729264601231724E-16 ) ) ;
#57 = CALENDAR_DATE ( 2021, 26, 11 ) ;
#58 = DIRECTION ( 'NONE',  ( -3.491481338843133355E-15, 9.031770143711729009E-17, -1.000000000000000000 ) ) ;
#59 = AXIS2_PLACEMENT_3D ( 'NONE', #52, #19, #13 ) ;
#60 = CARTESIAN_POINT ( 'NONE',  ( 1.396592535537252948E-15, 2.208999999999997854, 0.3999999999999999112 ) ) ;
#61 = FACE_OUTER_BOUND ( 'NONE', #200, .T. ) ;
#62 = EDGE_CURVE ( 'NONE', #80, #80, #63, .T. ) ;
#63 = CIRCLE ( 'NONE', #192, 2.208999999999991637 ) ;
#64 = LOCAL_TIME ( 11, 2, 51.00000000000000000, #139 ) ;
#65 = CARTESIAN_POINT ( 'NONE',  ( 4.758840117739185836E-14, 2.208999999999998298, 13.62985980992233870 ) ) ;
#66 = PERSON_AND_ORGANIZATION_ROLE ( 'creator' ) ;
#67 = AXIS2_PLACEMENT_3D ( 'NONE', #182, #84, #158 ) ;
#68 = VERTEX_POINT ( 'NONE', #48 ) ;
#69 = EDGE_LOOP ( 'NONE', ( #218 ) ) ;
#70 = PERSON_AND_ORGANIZATION_ROLE ( 'classification_officer' ) ;
#71 = ORIENTED_EDGE ( 'NONE', *, *, #12, .T. ) ;
#72 = APPROVAL ( #173, 'UNSPECIFIED' ) ;
#73 = ORIENTED_EDGE ( 'NONE', *, *, #47, .T. ) ;
#74 = PRODUCT_DEFINITION_FORMATION_WITH_SPECIFIED_SOURCE ( 'ANY', '', #6, .NOT_KNOWN. ) ;
#75 = CARTESIAN_POINT ( 'NONE',  ( 4.758840117739185836E-14, -1.231017608942330077E-15, 13.62985980992233870 ) ) ;
#76 = CARTESIAN_POINT ( 'NONE',  ( 2.793185071074506684E-13, -7.225416114969383207E-15, 80.00000000000000000 ) ) ;
#77 = DIRECTION ( 'NONE',  ( -1.654518479718504481E-30, 1.000000000000000000, -4.738729264601232710E-16 ) ) ;
#78 =( NAMED_UNIT ( * ) SI_UNIT ( $, .STERADIAN. ) SOLID_ANGLE_UNIT ( ) );
#79 = CALENDAR_DATE ( 2021, 26, 11 ) ;
#80 = VERTEX_POINT ( 'NONE', #228 ) ;
#81 = AXIS2_PLACEMENT_3D ( 'NONE', #16, #242, #188 ) ;
#82 = ADVANCED_FACE ( 'NONE', ( #131 ), #202, .T. ) ;
#83 = AXIS2_PLACEMENT_3D ( 'NONE', #167, #95, #110 ) ;
#84 = DIRECTION ( 'NONE',  ( -3.491481338843133355E-15, 9.031770143711729009E-17, -1.000000000000000000 ) ) ;
#85 = EDGE_LOOP ( 'NONE', ( #179 ) ) ;
#86 = ADVANCED_FACE ( 'NONE', ( #96, #169 ), #113, .T. ) ;
#87 = PLANE ( 'NONE',  #137 ) ;
#88 = MANIFOLD_SOLID_BREP ( 'Corps-Déplacer/Copier1[2]', #174 ) ;
#89 = LOCAL_TIME ( 11, 2, 51.00000000000000000, #235 ) ;
#90 = APPROVAL ( #44, 'UNSPECIFIED' ) ;
#91 = DIRECTION ( 'NONE',  ( 3.153425691349006731E-31, 1.000000000000000000, 9.031770143711729009E-17 ) ) ;
#92 = CC_DESIGN_PERSON_AND_ORGANIZATION_ASSIGNMENT ( #11, #70, ( #133 ) ) ;
#93 = FACE_OUTER_BOUND ( 'NONE', #180, .T. ) ;
#94 = DIRECTION ( 'NONE',  ( -2.789939258505739320E-30, 1.000000000000000000, -7.852980878120478446E-16 ) ) ;
#95 = DIRECTION ( 'NONE',  ( -3.491481338843133355E-15, 9.031770143711729009E-17, -1.000000000000000000 ) ) ;
#96 = FACE_BOUND ( 'NONE', #55, .T. ) ;
#97 = DATE_AND_TIME ( #8, #175 ) ;
#98 = MECHANICAL_CONTEXT ( 'NONE', #193, 'mechanical' ) ;
#99 = DATE_AND_TIME ( #121, #119 ) ;
#100 = APPROVAL_ROLE ( '' ) ;
#101 = AXIS2_PLACEMENT_3D ( 'NONE', #37, #163, #223 ) ;
#102 = LOCAL_TIME ( 11, 2, 51.00000000000000000, #191 ) ;
#103 = PERSON_AND_ORGANIZATION ( #117, #153 ) ;
#104 = EDGE_LOOP ( 'NONE', ( #51 ) ) ;
#105 = ORIENTED_EDGE ( 'NONE', *, *, #231, .T. ) ;
#106 = ORIENTED_EDGE ( 'NONE', *, *, #112, .T. ) ;
#107 = FACE_OUTER_BOUND ( 'NONE', #156, .T. ) ;
#108 = FACE_OUTER_BOUND ( 'NONE', #214, .T. ) ;
#109 = FACE_OUTER_BOUND ( 'NONE', #17, .T. ) ;
#110 = DIRECTION ( 'NONE',  ( 3.153425691349006731E-31, 1.000000000000000000, 9.031770143711729009E-17 ) ) ;
#111 = DIRECTION ( 'NONE',  ( -3.491481338843133355E-15, -4.738729264601231724E-16, -1.000000000000000000 ) ) ;
#112 = EDGE_CURVE ( 'NONE', #212, #212, #149, .T. ) ;
#113 = CONICAL_SURFACE ( 'NONE', #45, 1.999999999999995337, 0.7853981633974516097 ) ;
#114 = APPROVAL_PERSON_ORGANIZATION ( #241, #50, #155 ) ;
#115 = CYLINDRICAL_SURFACE ( 'NONE', #33, 1.999999999999993561 ) ;
#116 = APPROVAL_ROLE ( '' ) ;
#117 = PERSON ( 'UNSPECIFIED', 'UNSPECIFIED', 'UNSPECIFIED', ('UNSPECIFIED'), ('UNSPECIFIED'), ('UNSPECIFIED') ) ;
#118 = PERSON_AND_ORGANIZATION ( #117, #153 ) ;
#119 = LOCAL_TIME ( 11, 2, 51.00000000000000000, #171 ) ;
#120 = DATE_TIME_ROLE ( 'creation_date' ) ;
#121 = CALENDAR_DATE ( 2021, 26, 11 ) ;
#122 = CALENDAR_DATE ( 2021, 26, 11 ) ;
#123 = EDGE_LOOP ( 'NONE', ( #217 ) ) ;
#124 = EDGE_LOOP ( 'NONE', ( #30 ) ) ;
#125 = ADVANCED_FACE ( 'NONE', ( #109, #4 ), #115, .T. ) ;
#126 = CARTESIAN_POINT ( 'NONE',  ( -1.636368322920149527E-30, 1.978059892324148139, -4.686745149445201588E-16 ) ) ;
#127 = DATE_AND_TIME ( #57, #89 ) ;
#128 = DIRECTION ( 'NONE',  ( -3.491481338843133355E-15, 9.031770143711729009E-17, -1.000000000000000000 ) ) ;
#129 = ADVANCED_FACE ( 'NONE', ( #22 ), #5, .T. ) ;
#130 = CARTESIAN_POINT ( 'NONE',  ( 0.0000000000000000000, 0.0000000000000000000, 0.0000000000000000000 ) ) ;
#131 = FACE_OUTER_BOUND ( 'NONE', #237, .T. ) ;
#132 = AXIS2_PLACEMENT_3D ( 'NONE', #40, #226, #77 ) ;
#133 = SECURITY_CLASSIFICATION ( '', '', #211 ) ;
#134 = CARTESIAN_POINT ( 'NONE',  ( 0.0000000000000000000, 0.0000000000000000000, 0.0000000000000000000 ) ) ;
#135 = APPLICATION_PROTOCOL_DEFINITION ( 'international standard', 'config_control_design', 1994, #193 ) ;
#136 = PERSON_AND_ORGANIZATION ( #117, #153 ) ;
#137 = AXIS2_PLACEMENT_3D ( 'NONE', #160, #216, #53 ) ;
#138 = ADVANCED_FACE ( 'NONE', ( #141 ), #2, .T. ) ;
#139 = COORDINATED_UNIVERSAL_TIME_OFFSET ( 1, 0, .AHEAD. ) ;
#140 = ORIENTED_EDGE ( 'NONE', *, *, #62, .T. ) ;
#141 = FACE_OUTER_BOUND ( 'NONE', #123, .T. ) ;
#142 = DIRECTION ( 'NONE',  ( 1.654518479718504832E-30, -1.000000000000000000, 4.738729264601232710E-16 ) ) ;
#143 = DIRECTION ( 'NONE',  ( -3.491481338843133355E-15, 9.031770143711729009E-17, -1.000000000000000000 ) ) ;
#144 = AXIS2_PLACEMENT_3D ( 'NONE', #76, #206, #146 ) ;
#145 = AXIS2_PLACEMENT_3D ( 'NONE', #134, #26, #195 ) ;
#146 = DIRECTION ( 'NONE',  ( 0.0000000000000000000, 1.000000000000000000, 0.0000000000000000000 ) ) ;
#147 = VERTEX_POINT ( 'NONE', #60 ) ;
#148 = PRODUCT_RELATED_PRODUCT_CATEGORY ( 'detail', '', ( #6 ) ) ;
#149 = CIRCLE ( 'NONE', #144, 1.599999999999994982 ) ;
#150 = APPROVAL_DATE_TIME ( #151, #72 ) ;
#151 = DATE_AND_TIME ( #79, #102 ) ;
#152 = CARTESIAN_POINT ( 'NONE',  ( 2.779219145719134403E-13, 1.999999999999988010, 79.60000000000000853 ) ) ;
#153 = ORGANIZATION ( 'UNSPECIFIED', 'UNSPECIFIED', '' ) ;
#154 = PERSON_AND_ORGANIZATION_ROLE ( 'creator' ) ;
#155 = APPROVAL_ROLE ( '' ) ;
#156 = EDGE_LOOP ( 'NONE', ( #32 ) ) ;
#157 = CIRCLE ( 'NONE', #59, 2.208999999999997854 ) ;
#158 = DIRECTION ( 'NONE',  ( 0.0000000000000000000, 1.000000000000000000, 0.0000000000000000000 ) ) ;
#159 = PRODUCT_DEFINITION_SHAPE ( 'NONE', 'NONE',  #185 ) ;
#160 = CARTESIAN_POINT ( 'NONE',  ( 4.758840117739187098E-14, 6.458821555369117501E-15, 13.62985980992234225 ) ) ;
#161 = CIRCLE ( 'NONE', #197, 2.208999999999999631 ) ;
#162 = CIRCLE ( 'NONE', #201, 1.999999999999995337 ) ;
#163 = DIRECTION ( 'NONE',  ( 3.491481338843133355E-15, -9.031770143711729009E-17, 1.000000000000000000 ) ) ;
#164 = DIRECTION ( 'NONE',  ( -3.491481338843133355E-15, -4.738729264601231724E-16, -1.000000000000000000 ) ) ;
#165 = CC_DESIGN_PERSON_AND_ORGANIZATION_ASSIGNMENT ( #118, #154, ( #185 ) ) ;
#166 = DIRECTION ( 'NONE',  ( 0.0000000000000000000, 1.000000000000000000, 0.0000000000000000000 ) ) ;
#167 = CARTESIAN_POINT ( 'NONE',  ( 4.758840117739187098E-14, 2.208999999999998298, 13.62985980992234225 ) ) ;
#168 = EDGE_CURVE ( 'NONE', #68, #68, #238, .T. ) ;
#169 = FACE_OUTER_BOUND ( 'NONE', #69, .T. ) ;
#170 = APPLICATION_PROTOCOL_DEFINITION ( 'international standard', 'config_control_design', 1994, #181 ) ;
#171 = COORDINATED_UNIVERSAL_TIME_OFFSET ( 1, 0, .AHEAD. ) ;
#172 =( NAMED_UNIT ( * ) PLANE_ANGLE_UNIT ( ) SI_UNIT ( $, .RADIAN. ) );
#173 = APPROVAL_STATUS ( 'not_yet_approved' ) ;
#174 = CLOSED_SHELL ( 'NONE', ( #35, #220, #209, #129 ) ) ;
#175 = LOCAL_TIME ( 11, 2, 51.00000000000000000, #190 ) ;
#176 = VERTEX_POINT ( 'NONE', #152 ) ;
#177 = CC_DESIGN_PERSON_AND_ORGANIZATION_ASSIGNMENT ( #46, #207, ( #6 ) ) ;
#178 = FACE_BOUND ( 'NONE', #234, .T. ) ;
#179 = ORIENTED_EDGE ( 'NONE', *, *, #47, .F. ) ;
#180 = EDGE_LOOP ( 'NONE', ( #34 ) ) ;
#181 = APPLICATION_CONTEXT ( 'configuration controlled 3d designs of mechanical parts and assemblies' ) ;
#182 = CARTESIAN_POINT ( 'NONE',  ( 4.758840117739185836E-14, -1.231017608942330077E-15, 13.62985980992233870 ) ) ;
#183 = APPROVAL_PERSON_ORGANIZATION ( #103, #90, #116 ) ;
#184 = DIRECTION ( 'NONE',  ( 3.491481338843133355E-15, 4.738729264601231724E-16, 1.000000000000000000 ) ) ;
#185 = PRODUCT_DEFINITION ( 'UNKNOWN', '', #74, #240 ) ;
#186 = CARTESIAN_POINT ( 'NONE',  ( 0.0000000000000000000, 0.0000000000000000000, 0.0000000000000000000 ) ) ;
#187 = FACE_BOUND ( 'NONE', #104, .T. ) ;
#188 = DIRECTION ( 'NONE',  ( 0.0000000000000000000, 1.000000000000000000, 0.0000000000000000000 ) ) ;
#189 = EDGE_CURVE ( 'NONE', #232, #232, #161, .T. ) ;
#190 = COORDINATED_UNIVERSAL_TIME_OFFSET ( 1, 0, .AHEAD. ) ;
#191 = COORDINATED_UNIVERSAL_TIME_OFFSET ( 1, 0, .AHEAD. ) ;
#192 = AXIS2_PLACEMENT_3D ( 'NONE', #23, #111, #94 ) ;
#193 = APPLICATION_CONTEXT ( 'configuration controlled 3d designs of mechanical parts and assemblies' ) ;
#194 = PERSON_AND_ORGANIZATION_ROLE ( 'design_supplier' ) ;
#195 = DIRECTION ( 'NONE',  ( 1.000000000000000000, 0.0000000000000000000, 0.0000000000000000000 ) ) ;
#196 = CC_DESIGN_DATE_AND_TIME_ASSIGNMENT ( #127, #233, ( #133 ) ) ;
#197 = AXIS2_PLACEMENT_3D ( 'NONE', #75, #128, #203 ) ;
#198 = APPROVAL_DATE_TIME ( #49, #50 ) ;
#199 = EDGE_LOOP ( 'NONE', ( #31 ) ) ;
#200 = EDGE_LOOP ( 'NONE', ( #140 ) ) ;
#201 = AXIS2_PLACEMENT_3D ( 'NONE', #243, #143, #225 ) ;
#202 = PLANE ( 'NONE',  #83 ) ;
#203 = DIRECTION ( 'NONE',  ( 0.0000000000000000000, 1.000000000000000000, 0.0000000000000000000 ) ) ;
#204 = VERTEX_POINT ( 'NONE', #43 ) ;
#205 = CIRCLE ( 'NONE', #81, 1.999999999999991784 ) ;
#206 = DIRECTION ( 'NONE',  ( -3.491481338843133355E-15, 9.031770143711729009E-17, -1.000000000000000000 ) ) ;
#207 = PERSON_AND_ORGANIZATION_ROLE ( 'design_owner' ) ;
#208 = APPROVAL_DATE_TIME ( #99, #90 ) ;
#209 = ADVANCED_FACE ( 'NONE', ( #108, #187 ), #230, .T. ) ;
#210 = AXIS2_PLACEMENT_3D ( 'NONE', #126, #24, #56 ) ;
#211 = SECURITY_CLASSIFICATION_LEVEL ( 'unclassified' ) ;
#212 = VERTEX_POINT ( 'NONE', #229 ) ;
#213 = ADVANCED_BREP_SHAPE_REPRESENTATION ( '321345', ( #10, #88, #145 ), #15 ) ;
#214 = EDGE_LOOP ( 'NONE', ( #71 ) ) ;
#215 = SHAPE_DEFINITION_REPRESENTATION ( #159, #213 ) ;
#216 = DIRECTION ( 'NONE',  ( 3.491481338843133355E-15, 4.738729264601231724E-16, 1.000000000000000000 ) ) ;
#217 = ORIENTED_EDGE ( 'NONE', *, *, #112, .F. ) ;
#218 = ORIENTED_EDGE ( 'NONE', *, *, #231, .F. ) ;
#219 = CARTESIAN_POINT ( 'NONE',  ( 3.272736645840299055E-30, 4.441843279080769813E-31, 9.373490298890403175E-16 ) ) ;
#220 = ADVANCED_FACE ( 'NONE', ( #61, #93 ), #21, .T. ) ;
#221 = APPROVAL_STATUS ( 'not_yet_approved' ) ;
#222 = UNCERTAINTY_MEASURE_WITH_UNIT (LENGTH_MEASURE( 1.000000000000000082E-05 ), #7, 'distance_accuracy_value', 'NONE');
#223 = DIRECTION ( 'NONE',  ( -3.153425691349006731E-31, -1.000000000000000000, -9.031770143711729009E-17 ) ) ;
#224 = AXIS2_PLACEMENT_3D ( 'NONE', #130, #164, #41 ) ;
#225 = DIRECTION ( 'NONE',  ( 0.0000000000000000000, 1.000000000000000000, 0.0000000000000000000 ) ) ;
#226 = DIRECTION ( 'NONE',  ( -3.491481338843133355E-15, -4.738729264601231724E-16, -1.000000000000000000 ) ) ;
#227 = CC_DESIGN_PERSON_AND_ORGANIZATION_ASSIGNMENT ( #136, #194, ( #74 ) ) ;
#228 = CARTESIAN_POINT ( 'NONE',  ( 4.758840117739185836E-14, 2.208999999999998298, 13.62985980992233870 ) ) ;
#229 = CARTESIAN_POINT ( 'NONE',  ( 2.793185071074506684E-13, 1.599999999999987876, 80.00000000000000000 ) ) ;
#230 = CONICAL_SURFACE ( 'NONE', #29, 1.978059892324148139, 0.5235987755982979275 ) ;
#231 = EDGE_CURVE ( 'NONE', #176, #176, #162, .T. ) ;
#232 = VERTEX_POINT ( 'NONE', #65 ) ;
#233 = DATE_TIME_ROLE ( 'classification_date' ) ;
#234 = EDGE_LOOP ( 'NONE', ( #73 ) ) ;
#235 = COORDINATED_UNIVERSAL_TIME_OFFSET ( 1, 0, .AHEAD. ) ;
#236 = FACE_OUTER_BOUND ( 'NONE', #124, .T. ) ;
#237 = EDGE_LOOP ( 'NONE', ( #36 ) ) ;
#238 = CIRCLE ( 'NONE', #132, 1.978059892324148139 ) ;
#239 = APPROVAL_PERSON_ORGANIZATION ( #27, #72, #100 ) ;
#240 = DESIGN_CONTEXT ( 'detailed design', #181, 'design' ) ;
#241 = PERSON_AND_ORGANIZATION ( #117, #153 ) ;
#242 = DIRECTION ( 'NONE',  ( -3.491481338843133355E-15, 9.031770143711729009E-17, -1.000000000000000000 ) ) ;
#243 = CARTESIAN_POINT ( 'NONE',  ( 2.779219145719134403E-13, -7.189289034394536528E-15, 79.60000000000000853 ) ) ;
ENDSEC;
END-ISO-10303-21;
