ISO-10303-21;
HEADER;
FILE_DESCRIPTION (( 'STEP AP203' ),
    '1' );
FILE_NAME ('321344.step',
    '2021-11-26T10:02:50',
    ( '' ),
    ( '' ),
    'SwSTEP 2.0',
    'SolidWorks 2019',
    '' );
FILE_SCHEMA (( 'CONFIG_CONTROL_DESIGN' ));
ENDSEC;

DATA;
#1 = LOCAL_TIME ( 11, 2, 50.00000000000000000, #131 ) ;
#2 = EDGE_LOOP ( 'NONE', ( #243 ) ) ;
#3 = FACE_OUTER_BOUND ( 'NONE', #191, .T. ) ;
#4 = CARTESIAN_POINT ( 'NONE',  ( 4.761863829275463340E-14, -1.231799783180889571E-15, 13.63852006396018268 ) ) ;
#5 = DIRECTION ( 'NONE',  ( -3.491481338843133355E-15, 9.031770143711729009E-17, -1.000000000000000000 ) ) ;
#6 = FACE_OUTER_BOUND ( 'NONE', #173, .T. ) ;
#7 = DIRECTION ( 'NONE',  ( -3.491481338843133355E-15, -4.734164978760055697E-16, -1.000000000000000000 ) ) ;
#8 = VERTEX_POINT ( 'NONE', #108 ) ;
#9 = COORDINATED_UNIVERSAL_TIME_OFFSET ( 1, 0, .AHEAD. ) ;
#10 = AXIS2_PLACEMENT_3D ( 'NONE', #232, #135, #136 ) ;
#11 = APPROVAL ( #69, 'UNSPECIFIED' ) ;
#12 = PERSON_AND_ORGANIZATION_ROLE ( 'creator' ) ;
#13 = ADVANCED_FACE ( 'NONE', ( #52, #132 ), #144, .T. ) ;
#14 = AXIS2_PLACEMENT_3D ( 'NONE', #58, #75, #195 ) ;
#15 = EDGE_LOOP ( 'NONE', ( #90 ) ) ;
#16 = LOCAL_TIME ( 11, 2, 50.00000000000000000, #67 ) ;
#17 = DIRECTION ( 'NONE',  ( -3.491481338843133355E-15, 9.031770143711729009E-17, -1.000000000000000000 ) ) ;
#18 = CC_DESIGN_PERSON_AND_ORGANIZATION_ASSIGNMENT ( #223, #242, ( #213 ) ) ;
#19 = AXIS2_PLACEMENT_3D ( 'NONE', #113, #95, #24 ) ;
#20 = PLANE ( 'NONE',  #240 ) ;
#21 = CYLINDRICAL_SURFACE ( 'NONE', #166, 1.999999999999993561 ) ;
#22 = FACE_OUTER_BOUND ( 'NONE', #210, .T. ) ;
#23 = CONICAL_SURFACE ( 'NONE', #10, 1.999999999999995337, 0.7853981633974516097 ) ;
#24 = DIRECTION ( 'NONE',  ( -1.652924867834543226E-30, 1.000000000000000000, -4.734164978760055697E-16 ) ) ;
#25 = DATE_AND_TIME ( #123, #16 ) ;
#26 = LOCAL_TIME ( 11, 2, 50.00000000000000000, #48 ) ;
#27 = DIRECTION ( 'NONE',  ( -1.660284434816583538E-30, 1.000000000000000000, -4.673285226230625111E-16 ) ) ;
#28 =( LENGTH_UNIT ( ) NAMED_UNIT ( * ) SI_UNIT ( .MILLI., .METRE. ) );
#29 = PERSON_AND_ORGANIZATION ( #188, #197 ) ;
#30 = ORIENTED_EDGE ( 'NONE', *, *, #41, .T. ) ;
#31 = APPROVAL_DATE_TIME ( #112, #241 ) ;
#32 = PERSON_AND_ORGANIZATION_ROLE ( 'classification_officer' ) ;
#33 = ORIENTED_EDGE ( 'NONE', *, *, #124, .T. ) ;
#34 = FACE_OUTER_BOUND ( 'NONE', #49, .T. ) ;
#35 = FACE_OUTER_BOUND ( 'NONE', #2, .T. ) ;
#36 = LOCAL_TIME ( 11, 2, 50.00000000000000000, #9 ) ;
#37 = FACE_OUTER_BOUND ( 'NONE', #205, .T. ) ;
#38 = PLANE ( 'NONE',  #19 ) ;
#39 = CARTESIAN_POINT ( 'NONE',  ( 2.793185071074506684E-13, -7.225416114969383207E-15, 80.00000000000000000 ) ) ;
#40 = PRODUCT_RELATED_PRODUCT_CATEGORY ( 'detail', '', ( #78 ) ) ;
#41 = EDGE_CURVE ( 'NONE', #81, #81, #129, .T. ) ;
#42 = CARTESIAN_POINT ( 'NONE',  ( 1.396592535537256498E-15, 1.893665991504026765E-16, 0.4000000000000009659 ) ) ;
#43 = CC_DESIGN_PERSON_AND_ORGANIZATION_ASSIGNMENT ( #167, #32, ( #45 ) ) ;
#44 = PERSON_AND_ORGANIZATION_ROLE ( 'design_owner' ) ;
#45 = SECURITY_CLASSIFICATION ( '', '', #222 ) ;
#46 = EDGE_CURVE ( 'NONE', #239, #239, #62, .T. ) ;
#47 = APPLICATION_PROTOCOL_DEFINITION ( 'international standard', 'config_control_design', 1994, #74 ) ;
#48 = COORDINATED_UNIVERSAL_TIME_OFFSET ( 1, 0, .AHEAD. ) ;
#49 = EDGE_LOOP ( 'NONE', ( #206 ) ) ;
#50 = AXIS2_PLACEMENT_3D ( 'NONE', #42, #121, #27 ) ;
#51 = EDGE_LOOP ( 'NONE', ( #30 ) ) ;
#52 = FACE_BOUND ( 'NONE', #190, .T. ) ;
#53 = CIRCLE ( 'NONE', #97, 2.203999999999992188 ) ;
#54 = EDGE_LOOP ( 'NONE', ( #94 ) ) ;
#55 = DIRECTION ( 'NONE',  ( -3.491481338843133355E-15, 9.031770143711729009E-17, -1.000000000000000000 ) ) ;
#56 = CARTESIAN_POINT ( 'NONE',  ( 4.761863829275463971E-14, 6.456700404891665046E-15, 13.63852006396018446 ) ) ;
#57 = AXIS2_PLACEMENT_3D ( 'NONE', #176, #5, #126 ) ;
#58 = CARTESIAN_POINT ( 'NONE',  ( 3.261319761749532462E-30, 4.422084583080855452E-31, 9.340791043237073252E-16 ) ) ;
#59 = DIRECTION ( 'NONE',  ( -3.491481338843133355E-15, -4.734164978760055697E-16, -1.000000000000000000 ) ) ;
#60 = ADVANCED_FACE ( 'NONE', ( #193, #211 ), #202, .T. ) ;
#61 = CLOSED_SHELL ( 'NONE', ( #100, #139, #60, #134 ) ) ;
#62 = CIRCLE ( 'NONE', #142, 1.999999999999995337 ) ;
#63 = CARTESIAN_POINT ( 'NONE',  ( 0.0000000000000000000, 0.0000000000000000000, 0.0000000000000000000 ) ) ;
#64 = APPLICATION_CONTEXT ( 'configuration controlled 3d designs of mechanical parts and assemblies' ) ;
#65 = APPROVAL_DATE_TIME ( #186, #177 ) ;
#66 = ADVANCED_FACE ( 'NONE', ( #196, #22 ), #23, .T. ) ;
#67 = COORDINATED_UNIVERSAL_TIME_OFFSET ( 1, 0, .AHEAD. ) ;
#68 = APPROVAL_ROLE ( '' ) ;
#69 = APPROVAL_STATUS ( 'not_yet_approved' ) ;
#70 = EDGE_LOOP ( 'NONE', ( #88 ) ) ;
#71 = CIRCLE ( 'NONE', #57, 1.599999999999994982 ) ;
#72 = ORIENTED_EDGE ( 'NONE', *, *, #83, .T. ) ;
#73 = PLANE ( 'NONE',  #116 ) ;
#74 = APPLICATION_CONTEXT ( 'configuration controlled 3d designs of mechanical parts and assemblies' ) ;
#75 = DIRECTION ( 'NONE',  ( 3.491481338843133355E-15, 4.734164978760055697E-16, 1.000000000000000000 ) ) ;
#76 = FACE_OUTER_BOUND ( 'NONE', #93, .T. ) ;
#77 = ADVANCED_BREP_SHAPE_REPRESENTATION ( '321344', ( #86, #172, #147 ), #125 ) ;
#78 = PRODUCT ( '321344', '321344', '', ( #217 ) ) ;
#79 = APPROVAL_ROLE ( '' ) ;
#80 = APPLICATION_PROTOCOL_DEFINITION ( 'international standard', 'config_control_design', 1994, #64 ) ;
#81 = VERTEX_POINT ( 'NONE', #107 ) ;
#82 = CIRCLE ( 'NONE', #170, 1.999999999999991784 ) ;
#83 = EDGE_CURVE ( 'NONE', #183, #183, #53, .T. ) ;
#84 = PRODUCT_DEFINITION_SHAPE ( 'NONE', 'NONE',  #216 ) ;
#85 = DATE_AND_TIME ( #204, #1 ) ;
#86 = MANIFOLD_SOLID_BREP ( 'Corps-Déplacer/Copier1[1]', #96 ) ;
#87 = CALENDAR_DATE ( 2021, 26, 11 ) ;
#88 = ORIENTED_EDGE ( 'NONE', *, *, #201, .F. ) ;
#89 = SHAPE_DEFINITION_REPRESENTATION ( #84, #77 ) ;
#90 = ORIENTED_EDGE ( 'NONE', *, *, #124, .F. ) ;
#91 = APPROVAL_PERSON_ORGANIZATION ( #160, #241, #163 ) ;
#92 = DATE_TIME_ROLE ( 'classification_date' ) ;
#93 = EDGE_LOOP ( 'NONE', ( #33 ) ) ;
#94 = ORIENTED_EDGE ( 'NONE', *, *, #41, .F. ) ;
#95 = DIRECTION ( 'NONE',  ( -3.491481338843133355E-15, -4.734164978760055697E-16, -1.000000000000000000 ) ) ;
#96 = CLOSED_SHELL ( 'NONE', ( #111, #66, #180, #13, #155 ) ) ;
#97 = AXIS2_PLACEMENT_3D ( 'NONE', #56, #178, #156 ) ;
#98 = DIRECTION ( 'NONE',  ( 0.0000000000000000000, 1.000000000000000000, 0.0000000000000000000 ) ) ;
#99 = CARTESIAN_POINT ( 'NONE',  ( 0.0000000000000000000, 0.0000000000000000000, 0.0000000000000000000 ) ) ;
#100 = ADVANCED_FACE ( 'NONE', ( #35 ), #114, .T. ) ;
#101 = FACE_OUTER_BOUND ( 'NONE', #51, .T. ) ;
#102 = CYLINDRICAL_SURFACE ( 'NONE', #187, 2.203999999999995296 ) ;
#103 = UNCERTAINTY_MEASURE_WITH_UNIT (LENGTH_MEASURE( 1.000000000000000082E-05 ), #28, 'distance_accuracy_value', 'NONE');
#104 = CARTESIAN_POINT ( 'NONE',  ( 4.761863829275463340E-14, 2.203999999999998405, 13.63852006396018268 ) ) ;
#105 = CARTESIAN_POINT ( 'NONE',  ( 1.396592535537252948E-15, 2.203999999999998849, 0.3999999999999999112 ) ) ;
#106 = LOCAL_TIME ( 11, 2, 50.00000000000000000, #238 ) ;
#107 = CARTESIAN_POINT ( 'NONE',  ( 0.0000000000000000000, 1.973059892324149134, 0.0000000000000000000 ) ) ;
#108 = CARTESIAN_POINT ( 'NONE',  ( 4.885231259955590439E-14, 1.999999999999990452, 13.99185842870425134 ) ) ;
#109 = EDGE_CURVE ( 'NONE', #8, #8, #82, .T. ) ;
#110 = CALENDAR_DATE ( 2021, 26, 11 ) ;
#111 = ADVANCED_FACE ( 'NONE', ( #6 ), #20, .T. ) ;
#112 = DATE_AND_TIME ( #87, #106 ) ;
#113 = CARTESIAN_POINT ( 'NONE',  ( -1.630659880874766231E-30, 1.973059892324149134, -4.670395521618536626E-16 ) ) ;
#114 = PLANE ( 'NONE',  #236 ) ;
#115 = DESIGN_CONTEXT ( 'detailed design', #74, 'design' ) ;
#116 = AXIS2_PLACEMENT_3D ( 'NONE', #117, #194, #141 ) ;
#117 = CARTESIAN_POINT ( 'NONE',  ( 4.761863829275463971E-14, 2.203999999999998405, 13.63852006396018446 ) ) ;
#118 = FACE_OUTER_BOUND ( 'NONE', #70, .T. ) ;
#119 = DIRECTION ( 'NONE',  ( -3.491481338843133355E-15, 9.031770143711729009E-17, -1.000000000000000000 ) ) ;
#120 = CC_DESIGN_APPROVAL ( #177, ( #216 ) ) ;
#121 = DIRECTION ( 'NONE',  ( -3.491481338843133355E-15, -4.734164978760055697E-16, -1.000000000000000000 ) ) ;
#122 = PERSON_AND_ORGANIZATION ( #188, #197 ) ;
#123 = CALENDAR_DATE ( 2021, 26, 11 ) ;
#124 = EDGE_CURVE ( 'NONE', #199, #199, #227, .T. ) ;
#125 =( GEOMETRIC_REPRESENTATION_CONTEXT ( 3 ) GLOBAL_UNCERTAINTY_ASSIGNED_CONTEXT ( ( #103 ) ) GLOBAL_UNIT_ASSIGNED_CONTEXT ( ( #28, #237, #182 ) ) REPRESENTATION_CONTEXT ( 'NONE', 'WORKASPACE' ) );
#126 = DIRECTION ( 'NONE',  ( 0.0000000000000000000, 1.000000000000000000, 0.0000000000000000000 ) ) ;
#127 = APPROVAL_STATUS ( 'not_yet_approved' ) ;
#128 = PERSON_AND_ORGANIZATION ( #188, #197 ) ;
#129 = CIRCLE ( 'NONE', #169, 1.973059892324149134 ) ;
#130 = AXIS2_PLACEMENT_3D ( 'NONE', #4, #17, #214 ) ;
#131 = COORDINATED_UNIVERSAL_TIME_OFFSET ( 1, 0, .AHEAD. ) ;
#132 = FACE_OUTER_BOUND ( 'NONE', #15, .T. ) ;
#133 = APPROVAL_DATE_TIME ( #207, #11 ) ;
#134 = ADVANCED_FACE ( 'NONE', ( #101 ), #38, .T. ) ;
#135 = DIRECTION ( 'NONE',  ( -3.491481338843133355E-15, 9.031770143711729009E-17, -1.000000000000000000 ) ) ;
#136 = DIRECTION ( 'NONE',  ( 0.0000000000000000000, 1.000000000000000000, 0.0000000000000000000 ) ) ;
#137 = APPROVAL_PERSON_ORGANIZATION ( #128, #11, #68 ) ;
#138 = DIRECTION ( 'NONE',  ( 3.491481338843133355E-15, 4.734164978760055697E-16, 1.000000000000000000 ) ) ;
#139 = ADVANCED_FACE ( 'NONE', ( #37, #118 ), #102, .T. ) ;
#140 = CARTESIAN_POINT ( 'NONE',  ( 4.885231259955590439E-14, -1.263712492114123682E-15, 13.99185842870425134 ) ) ;
#141 = DIRECTION ( 'NONE',  ( 3.153425691349006731E-31, 1.000000000000000000, 9.031770143711729009E-17 ) ) ;
#142 = AXIS2_PLACEMENT_3D ( 'NONE', #158, #119, #212 ) ;
#143 = VERTEX_POINT ( 'NONE', #185 ) ;
#144 = CONICAL_SURFACE ( 'NONE', #235, 2.203999999999999737, 0.5235987755982925984 ) ;
#145 = DIRECTION ( 'NONE',  ( 1.000000000000000000, 0.0000000000000000000, 0.0000000000000000000 ) ) ;
#146 = EDGE_LOOP ( 'NONE', ( #226 ) ) ;
#147 = AXIS2_PLACEMENT_3D ( 'NONE', #63, #164, #145 ) ;
#148 = CALENDAR_DATE ( 2021, 26, 11 ) ;
#149 = ORIENTED_EDGE ( 'NONE', *, *, #201, .T. ) ;
#150 = ORIENTED_EDGE ( 'NONE', *, *, #109, .T. ) ;
#151 = CC_DESIGN_APPROVAL ( #241, ( #213 ) ) ;
#152 = DIRECTION ( 'NONE',  ( -3.491481338843133355E-15, 9.031770143711729009E-17, -1.000000000000000000 ) ) ;
#153 = CC_DESIGN_DATE_AND_TIME_ASSIGNMENT ( #85, #92, ( #45 ) ) ;
#154 = DIRECTION ( 'NONE',  ( -1.652924867834543226E-30, 1.000000000000000000, -4.734164978760055697E-16 ) ) ;
#155 = ADVANCED_FACE ( 'NONE', ( #76 ), #73, .T. ) ;
#156 = DIRECTION ( 'NONE',  ( -2.796268521796359722E-30, 1.000000000000000000, -7.870796170493708322E-16 ) ) ;
#157 = CC_DESIGN_SECURITY_CLASSIFICATION ( #45, ( #213 ) ) ;
#158 = CARTESIAN_POINT ( 'NONE',  ( 2.779219145719134403E-13, -7.189289034394536528E-15, 79.60000000000000853 ) ) ;
#159 = DIRECTION ( 'NONE',  ( 1.652924867834543226E-30, -1.000000000000000000, 4.734164978760055697E-16 ) ) ;
#160 = PERSON_AND_ORGANIZATION ( #188, #197 ) ;
#161 = CIRCLE ( 'NONE', #50, 2.203999999999998849 ) ;
#162 = VERTEX_POINT ( 'NONE', #105 ) ;
#163 = APPROVAL_ROLE ( '' ) ;
#164 = DIRECTION ( 'NONE',  ( 0.0000000000000000000, 0.0000000000000000000, 1.000000000000000000 ) ) ;
#165 = CC_DESIGN_DATE_AND_TIME_ASSIGNMENT ( #25, #200, ( #216 ) ) ;
#166 = AXIS2_PLACEMENT_3D ( 'NONE', #99, #152, #229 ) ;
#167 = PERSON_AND_ORGANIZATION ( #188, #197 ) ;
#168 = EDGE_LOOP ( 'NONE', ( #149 ) ) ;
#169 = AXIS2_PLACEMENT_3D ( 'NONE', #231, #59, #230 ) ;
#170 = AXIS2_PLACEMENT_3D ( 'NONE', #140, #215, #98 ) ;
#171 = ORIENTED_EDGE ( 'NONE', *, *, #46, .F. ) ;
#172 = MANIFOLD_SOLID_BREP ( 'Corps-Déplacer/Copier1[2]', #61 ) ;
#173 = EDGE_LOOP ( 'NONE', ( #224 ) ) ;
#174 = CARTESIAN_POINT ( 'NONE',  ( 0.0000000000000000000, 0.0000000000000000000, 0.0000000000000000000 ) ) ;
#175 = DIRECTION ( 'NONE',  ( 3.491481338843133355E-15, -9.031770143711729009E-17, 1.000000000000000000 ) ) ;
#176 = CARTESIAN_POINT ( 'NONE',  ( 2.793185071074506684E-13, -7.225416114969383207E-15, 80.00000000000000000 ) ) ;
#177 = APPROVAL ( #127, 'UNSPECIFIED' ) ;
#178 = DIRECTION ( 'NONE',  ( -3.491481338843133355E-15, -4.734164978760055697E-16, -1.000000000000000000 ) ) ;
#179 = DIRECTION ( 'NONE',  ( 0.0000000000000000000, 1.000000000000000000, 0.0000000000000000000 ) ) ;
#180 = ADVANCED_FACE ( 'NONE', ( #34, #3 ), #21, .T. ) ;
#181 = PERSON_AND_ORGANIZATION ( #188, #197 ) ;
#182 =( NAMED_UNIT ( * ) SI_UNIT ( $, .STERADIAN. ) SOLID_ANGLE_UNIT ( ) );
#183 = VERTEX_POINT ( 'NONE', #218 ) ;
#184 = EDGE_CURVE ( 'NONE', #143, #143, #71, .T. ) ;
#185 = CARTESIAN_POINT ( 'NONE',  ( 2.793185071074506684E-13, 1.599999999999987876, 80.00000000000000000 ) ) ;
#186 = DATE_AND_TIME ( #110, #36 ) ;
#187 = AXIS2_PLACEMENT_3D ( 'NONE', #174, #7, #154 ) ;
#188 = PERSON ( 'UNSPECIFIED', 'UNSPECIFIED', 'UNSPECIFIED', ('UNSPECIFIED'), ('UNSPECIFIED'), ('UNSPECIFIED') ) ;
#189 = PERSON_AND_ORGANIZATION_ROLE ( 'creator' ) ;
#190 = EDGE_LOOP ( 'NONE', ( #150 ) ) ;
#191 = EDGE_LOOP ( 'NONE', ( #228 ) ) ;
#192 = CARTESIAN_POINT ( 'NONE',  ( 4.761863829275463971E-14, 6.456700404891665046E-15, 13.63852006396018446 ) ) ;
#193 = FACE_OUTER_BOUND ( 'NONE', #168, .T. ) ;
#194 = DIRECTION ( 'NONE',  ( -3.491481338843133355E-15, 9.031770143711729009E-17, -1.000000000000000000 ) ) ;
#195 = DIRECTION ( 'NONE',  ( 1.652924867834543226E-30, -1.000000000000000000, 4.734164978760055697E-16 ) ) ;
#196 = FACE_BOUND ( 'NONE', #146, .T. ) ;
#197 = ORGANIZATION ( 'UNSPECIFIED', 'UNSPECIFIED', '' ) ;
#198 = CC_DESIGN_PERSON_AND_ORGANIZATION_ASSIGNMENT ( #29, #189, ( #213 ) ) ;
#199 = VERTEX_POINT ( 'NONE', #104 ) ;
#200 = DATE_TIME_ROLE ( 'creation_date' ) ;
#201 = EDGE_CURVE ( 'NONE', #162, #162, #161, .T. ) ;
#202 = CONICAL_SURFACE ( 'NONE', #14, 1.973059892324149134, 0.5235987755982979275 ) ;
#203 = CC_DESIGN_APPROVAL ( #11, ( #45 ) ) ;
#204 = CALENDAR_DATE ( 2021, 26, 11 ) ;
#205 = EDGE_LOOP ( 'NONE', ( #72 ) ) ;
#206 = ORIENTED_EDGE ( 'NONE', *, *, #46, .T. ) ;
#207 = DATE_AND_TIME ( #148, #26 ) ;
#208 = CARTESIAN_POINT ( 'NONE',  ( 4.761863829275463340E-14, -1.231799783180889571E-15, 13.63852006396018268 ) ) ;
#209 = CC_DESIGN_PERSON_AND_ORGANIZATION_ASSIGNMENT ( #181, #12, ( #216 ) ) ;
#210 = EDGE_LOOP ( 'NONE', ( #171 ) ) ;
#211 = FACE_BOUND ( 'NONE', #54, .T. ) ;
#212 = DIRECTION ( 'NONE',  ( 0.0000000000000000000, 1.000000000000000000, 0.0000000000000000000 ) ) ;
#213 = PRODUCT_DEFINITION_FORMATION_WITH_SPECIFIED_SOURCE ( 'ANY', '', #78, .NOT_KNOWN. ) ;
#214 = DIRECTION ( 'NONE',  ( 0.0000000000000000000, 1.000000000000000000, 0.0000000000000000000 ) ) ;
#215 = DIRECTION ( 'NONE',  ( -3.491481338843133355E-15, 9.031770143711729009E-17, -1.000000000000000000 ) ) ;
#216 = PRODUCT_DEFINITION ( 'UNKNOWN', '', #213, #115 ) ;
#217 = MECHANICAL_CONTEXT ( 'NONE', #64, 'mechanical' ) ;
#218 = CARTESIAN_POINT ( 'NONE',  ( 4.761863829275463340E-14, 2.203999999999998405, 13.63852006396018268 ) ) ;
#219 = APPROVAL_STATUS ( 'not_yet_approved' ) ;
#220 = CC_DESIGN_PERSON_AND_ORGANIZATION_ASSIGNMENT ( #221, #44, ( #78 ) ) ;
#221 = PERSON_AND_ORGANIZATION ( #188, #197 ) ;
#222 = SECURITY_CLASSIFICATION_LEVEL ( 'unclassified' ) ;
#223 = PERSON_AND_ORGANIZATION ( #188, #197 ) ;
#224 = ORIENTED_EDGE ( 'NONE', *, *, #184, .F. ) ;
#225 = APPROVAL_PERSON_ORGANIZATION ( #122, #177, #79 ) ;
#226 = ORIENTED_EDGE ( 'NONE', *, *, #184, .T. ) ;
#227 = CIRCLE ( 'NONE', #130, 2.203999999999999737 ) ;
#228 = ORIENTED_EDGE ( 'NONE', *, *, #109, .F. ) ;
#229 = DIRECTION ( 'NONE',  ( 3.153425691349006731E-31, 1.000000000000000000, 9.031770143711729009E-17 ) ) ;
#230 = DIRECTION ( 'NONE',  ( -1.652924867834543226E-30, 1.000000000000000000, -4.734164978760055697E-16 ) ) ;
#231 = CARTESIAN_POINT ( 'NONE',  ( 3.261319761749532462E-30, 4.422084583080855452E-31, 9.340791043237073252E-16 ) ) ;
#232 = CARTESIAN_POINT ( 'NONE',  ( 2.779219145719134403E-13, -7.189289034394536528E-15, 79.60000000000000853 ) ) ;
#233 = DIRECTION ( 'NONE',  ( -3.153425691349006731E-31, -1.000000000000000000, -9.031770143711729009E-17 ) ) ;
#234 = CARTESIAN_POINT ( 'NONE',  ( 2.779219145719134403E-13, 1.999999999999988010, 79.60000000000000853 ) ) ;
#235 = AXIS2_PLACEMENT_3D ( 'NONE', #208, #55, #179 ) ;
#236 = AXIS2_PLACEMENT_3D ( 'NONE', #192, #138, #159 ) ;
#237 =( NAMED_UNIT ( * ) PLANE_ANGLE_UNIT ( ) SI_UNIT ( $, .RADIAN. ) );
#238 = COORDINATED_UNIVERSAL_TIME_OFFSET ( 1, 0, .AHEAD. ) ;
#239 = VERTEX_POINT ( 'NONE', #234 ) ;
#240 = AXIS2_PLACEMENT_3D ( 'NONE', #39, #175, #233 ) ;
#241 = APPROVAL ( #219, 'UNSPECIFIED' ) ;
#242 = PERSON_AND_ORGANIZATION_ROLE ( 'design_supplier' ) ;
#243 = ORIENTED_EDGE ( 'NONE', *, *, #83, .F. ) ;
ENDSEC;
END-ISO-10303-21;
