ISO-10303-21;
HEADER;
FILE_DESCRIPTION (( 'STEP AP203' ),
    '1' );
FILE_NAME ('321343.step',
    '2021-11-26T10:02:50',
    ( '' ),
    ( '' ),
    'SwSTEP 2.0',
    'SolidWorks 2019',
    '' );
FILE_SCHEMA (( 'CONFIG_CONTROL_DESIGN' ));
ENDSEC;

DATA;
#1 = AXIS2_PLACEMENT_3D ( 'NONE', #57, #134, #168 ) ;
#2 = APPROVAL_STATUS ( 'not_yet_approved' ) ;
#3 = EDGE_CURVE ( 'NONE', #102, #102, #21, .T. ) ;
#4 = VERTEX_POINT ( 'NONE', #242 ) ;
#5 = CC_DESIGN_APPROVAL ( #83, ( #202 ) ) ;
#6 = PERSON_AND_ORGANIZATION_ROLE ( 'creator' ) ;
#7 = DESIGN_CONTEXT ( 'detailed design', #59, 'design' ) ;
#8 = EDGE_LOOP ( 'NONE', ( #62 ) ) ;
#9 = CC_DESIGN_PERSON_AND_ORGANIZATION_ASSIGNMENT ( #76, #101, ( #99 ) ) ;
#10 = APPLICATION_CONTEXT ( 'configuration controlled 3d designs of mechanical parts and assemblies' ) ;
#11 = DIRECTION ( 'NONE',  ( 1.651333278505195828E-30, -1.000000000000000000, 4.729606485745526798E-16 ) ) ;
#12 = CONICAL_SURFACE ( 'NONE', #239, 2.198999999999999400, 0.5235987755982929315 ) ;
#13 = FACE_BOUND ( 'NONE', #8, .T. ) ;
#14 = DIRECTION ( 'NONE',  ( 3.153425691349006731E-31, 1.000000000000000000, 9.031770143711729009E-17 ) ) ;
#15 = DIRECTION ( 'NONE',  ( -1.664059524481924498E-30, 1.000000000000000000, -4.683911158986949960E-16 ) ) ;
#16 = EDGE_CURVE ( 'NONE', #75, #75, #117, .T. ) ;
#17 = EDGE_LOOP ( 'NONE', ( #47 ) ) ;
#18 = CIRCLE ( 'NONE', #188, 1.999999999999991784 ) ;
#19 = APPLICATION_PROTOCOL_DEFINITION ( 'international standard', 'config_control_design', 1994, #10 ) ;
#20 =( LENGTH_UNIT ( ) NAMED_UNIT ( * ) SI_UNIT ( .MILLI., .METRE. ) );
#21 = CIRCLE ( 'NONE', #157, 1.599999999999994982 ) ;
#22 = APPROVAL_ROLE ( '' ) ;
#23 = DATE_TIME_ROLE ( 'creation_date' ) ;
#24 = EDGE_LOOP ( 'NONE', ( #156 ) ) ;
#25 = SHAPE_DEFINITION_REPRESENTATION ( #36, #186 ) ;
#26 = EDGE_CURVE ( 'NONE', #241, #241, #204, .T. ) ;
#27 = ORIENTED_EDGE ( 'NONE', *, *, #56, .T. ) ;
#28 = CONICAL_SURFACE ( 'NONE', #1, 1.968059892324148130, 0.5235987755982979275 ) ;
#29 = PERSON_AND_ORGANIZATION_ROLE ( 'design_supplier' ) ;
#30 = CC_DESIGN_DATE_AND_TIME_ASSIGNMENT ( #136, #173, ( #38 ) ) ;
#31 = DIRECTION ( 'NONE',  ( -3.491481338843133355E-15, 9.031770143711729009E-17, -1.000000000000000000 ) ) ;
#32 = DIRECTION ( 'NONE',  ( -3.491481338843133355E-15, 9.031770143711729009E-17, -1.000000000000000000 ) ) ;
#33 = PRODUCT_DEFINITION ( 'UNKNOWN', '', #202, #7 ) ;
#34 = DIRECTION ( 'NONE',  ( -2.802626567548511812E-30, 1.000000000000000000, -7.888692478293831271E-16 ) ) ;
#35 = FACE_OUTER_BOUND ( 'NONE', #24, .T. ) ;
#36 = PRODUCT_DEFINITION_SHAPE ( 'NONE', 'NONE',  #33 ) ;
#37 = DIRECTION ( 'NONE',  ( -1.651333278505195828E-30, 1.000000000000000000, -4.729606485745526798E-16 ) ) ;
#38 = SECURITY_CLASSIFICATION ( '', '', #211 ) ;
#39 = VERTEX_POINT ( 'NONE', #205 ) ;
#40 = AXIS2_PLACEMENT_3D ( 'NONE', #126, #199, #34 ) ;
#41 = CARTESIAN_POINT ( 'NONE',  ( 0.0000000000000000000, 1.968059892324148130, 0.0000000000000000000 ) ) ;
#42 = DATE_AND_TIME ( #63, #154 ) ;
#43 = EDGE_CURVE ( 'NONE', #39, #39, #18, .T. ) ;
#44 = COORDINATED_UNIVERSAL_TIME_OFFSET ( 1, 0, .AHEAD. ) ;
#45 = EDGE_LOOP ( 'NONE', ( #89 ) ) ;
#46 = COORDINATED_UNIVERSAL_TIME_OFFSET ( 1, 0, .AHEAD. ) ;
#47 = ORIENTED_EDGE ( 'NONE', *, *, #167, .F. ) ;
#48 = CIRCLE ( 'NONE', #40, 2.198999999999991850 ) ;
#49 = DIRECTION ( 'NONE',  ( -3.491481338843133355E-15, 9.031770143711729009E-17, -1.000000000000000000 ) ) ;
#50 = DIRECTION ( 'NONE',  ( 0.0000000000000000000, 1.000000000000000000, 0.0000000000000000000 ) ) ;
#51 = DIRECTION ( 'NONE',  ( 3.153425691349006731E-31, 1.000000000000000000, 9.031770143711729009E-17 ) ) ;
#52 = CYLINDRICAL_SURFACE ( 'NONE', #110, 2.198999999999994959 ) ;
#53 = DIRECTION ( 'NONE',  ( -1.651333278505195828E-30, 1.000000000000000000, -4.729606485745526798E-16 ) ) ;
#54 = CARTESIAN_POINT ( 'NONE',  ( 4.764887540811741475E-14, 2.198999999999998067, 13.64718031799802667 ) ) ;
#55 = PERSON_AND_ORGANIZATION ( #88, #93 ) ;
#56 = EDGE_CURVE ( 'NONE', #4, #4, #142, .T. ) ;
#57 = CARTESIAN_POINT ( 'NONE',  ( 3.249922794286218324E-30, 4.402388108172245946E-31, 9.308148831071934777E-16 ) ) ;
#58 = CLOSED_SHELL ( 'NONE', ( #185, #116, #95, #132, #139 ) ) ;
#59 = APPLICATION_CONTEXT ( 'configuration controlled 3d designs of mechanical parts and assemblies' ) ;
#60 = DIRECTION ( 'NONE',  ( 3.491481338843133355E-15, -9.031770143711729009E-17, 1.000000000000000000 ) ) ;
#61 = PERSON_AND_ORGANIZATION ( #88, #93 ) ;
#62 = ORIENTED_EDGE ( 'NONE', *, *, #3, .T. ) ;
#63 = CALENDAR_DATE ( 2021, 26, 11 ) ;
#64 = AXIS2_PLACEMENT_3D ( 'NONE', #135, #149, #118 ) ;
#65 = AXIS2_PLACEMENT_3D ( 'NONE', #109, #73, #14 ) ;
#66 = CALENDAR_DATE ( 2021, 26, 11 ) ;
#67 = CARTESIAN_POINT ( 'NONE',  ( 2.779219145719134403E-13, -7.189289034394536528E-15, 79.60000000000000853 ) ) ;
#68 = ORIENTED_EDGE ( 'NONE', *, *, #16, .T. ) ;
#69 = DIRECTION ( 'NONE',  ( -3.491481338843133355E-15, 9.031770143711729009E-17, -1.000000000000000000 ) ) ;
#70 = ADVANCED_FACE ( 'NONE', ( #237 ), #235, .T. ) ;
#71 = AXIS2_PLACEMENT_3D ( 'NONE', #215, #147, #125 ) ;
#72 = DIRECTION ( 'NONE',  ( 0.0000000000000000000, 1.000000000000000000, 0.0000000000000000000 ) ) ;
#73 = DIRECTION ( 'NONE',  ( -3.491481338843133355E-15, 9.031770143711729009E-17, -1.000000000000000000 ) ) ;
#74 =( NAMED_UNIT ( * ) PLANE_ANGLE_UNIT ( ) SI_UNIT ( $, .RADIAN. ) );
#75 = VERTEX_POINT ( 'NONE', #224 ) ;
#76 = PERSON_AND_ORGANIZATION ( #88, #93 ) ;
#77 = LOCAL_TIME ( 11, 2, 50.00000000000000000, #231 ) ;
#78 = CC_DESIGN_SECURITY_CLASSIFICATION ( #38, ( #202 ) ) ;
#79 = PERSON_AND_ORGANIZATION ( #88, #93 ) ;
#80 = EDGE_LOOP ( 'NONE', ( #82 ) ) ;
#81 = CIRCLE ( 'NONE', #64, 1.968059892324148130 ) ;
#82 = ORIENTED_EDGE ( 'NONE', *, *, #43, .F. ) ;
#83 = APPROVAL ( #158, 'UNSPECIFIED' ) ;
#84 = APPROVAL_STATUS ( 'not_yet_approved' ) ;
#85 = CYLINDRICAL_SURFACE ( 'NONE', #65, 1.999999999999993561 ) ;
#86 = AXIS2_PLACEMENT_3D ( 'NONE', #201, #198, #15 ) ;
#87 = APPROVAL ( #84, 'UNSPECIFIED' ) ;
#88 = PERSON ( 'UNSPECIFIED', 'UNSPECIFIED', 'UNSPECIFIED', ('UNSPECIFIED'), ('UNSPECIFIED'), ('UNSPECIFIED') ) ;
#89 = ORIENTED_EDGE ( 'NONE', *, *, #26, .F. ) ;
#90 = ADVANCED_FACE ( 'NONE', ( #197 ), #236, .T. ) ;
#91 = FACE_BOUND ( 'NONE', #210, .T. ) ;
#92 = FACE_OUTER_BOUND ( 'NONE', #183, .T. ) ;
#93 = ORGANIZATION ( 'UNSPECIFIED', 'UNSPECIFIED', '' ) ;
#94 = CARTESIAN_POINT ( 'NONE',  ( 4.764887540811740844E-14, 2.198999999999998067, 13.64718031799802489 ) ) ;
#95 = ADVANCED_FACE ( 'NONE', ( #200, #182 ), #85, .T. ) ;
#96 = CARTESIAN_POINT ( 'NONE',  ( 2.793185071074506684E-13, 1.599999999999987876, 80.00000000000000000 ) ) ;
#97 = CC_DESIGN_PERSON_AND_ORGANIZATION_ASSIGNMENT ( #193, #176, ( #38 ) ) ;
#98 = FACE_BOUND ( 'NONE', #111, .T. ) ;
#99 = PRODUCT ( '321343', '321343', '', ( #133 ) ) ;
#100 =( GEOMETRIC_REPRESENTATION_CONTEXT ( 3 ) GLOBAL_UNCERTAINTY_ASSIGNED_CONTEXT ( ( #108 ) ) GLOBAL_UNIT_ASSIGNED_CONTEXT ( ( #20, #74, #189 ) ) REPRESENTATION_CONTEXT ( 'NONE', 'WORKASPACE' ) );
#101 = PERSON_AND_ORGANIZATION_ROLE ( 'design_owner' ) ;
#102 = VERTEX_POINT ( 'NONE', #96 ) ;
#103 = CALENDAR_DATE ( 2021, 26, 11 ) ;
#104 = LOCAL_TIME ( 11, 2, 50.00000000000000000, #191 ) ;
#105 = ORIENTED_EDGE ( 'NONE', *, *, #43, .T. ) ;
#106 = APPROVAL_DATE_TIME ( #42, #230 ) ;
#107 = AXIS2_PLACEMENT_3D ( 'NONE', #152, #60, #226 ) ;
#108 = UNCERTAINTY_MEASURE_WITH_UNIT (LENGTH_MEASURE( 1.000000000000000082E-05 ), #20, 'distance_accuracy_value', 'NONE');
#109 = CARTESIAN_POINT ( 'NONE',  ( 0.0000000000000000000, 0.0000000000000000000, 0.0000000000000000000 ) ) ;
#110 = AXIS2_PLACEMENT_3D ( 'NONE', #148, #219, #53 ) ;
#111 = EDGE_LOOP ( 'NONE', ( #227 ) ) ;
#112 = CARTESIAN_POINT ( 'NONE',  ( 4.885231259955590439E-14, -1.263712492114123682E-15, 13.99185842870425134 ) ) ;
#113 = LOCAL_TIME ( 11, 2, 50.00000000000000000, #46 ) ;
#114 = DIRECTION ( 'NONE',  ( 0.0000000000000000000, 0.0000000000000000000, 1.000000000000000000 ) ) ;
#115 = VERTEX_POINT ( 'NONE', #41 ) ;
#116 = ADVANCED_FACE ( 'NONE', ( #13, #144 ), #208, .T. ) ;
#117 = CIRCLE ( 'NONE', #86, 2.198999999999997623 ) ;
#118 = DIRECTION ( 'NONE',  ( -1.651333278505195828E-30, 1.000000000000000000, -4.729606485745526798E-16 ) ) ;
#119 = PERSON_AND_ORGANIZATION_ROLE ( 'creator' ) ;
#120 = AXIS2_PLACEMENT_3D ( 'NONE', #67, #31, #180 ) ;
#121 = PERSON_AND_ORGANIZATION ( #88, #93 ) ;
#122 = CALENDAR_DATE ( 2021, 26, 11 ) ;
#123 = CC_DESIGN_APPROVAL ( #87, ( #38 ) ) ;
#124 = DIRECTION ( 'NONE',  ( 0.0000000000000000000, 1.000000000000000000, 0.0000000000000000000 ) ) ;
#125 = DIRECTION ( 'NONE',  ( 0.0000000000000000000, 1.000000000000000000, 0.0000000000000000000 ) ) ;
#126 = CARTESIAN_POINT ( 'NONE',  ( 4.764887540811742107E-14, 6.454579254414217324E-15, 13.64718031799802844 ) ) ;
#127 = CC_DESIGN_DATE_AND_TIME_ASSIGNMENT ( #140, #23, ( #33 ) ) ;
#128 = DIRECTION ( 'NONE',  ( -3.491481338843133355E-15, 9.031770143711729009E-17, -1.000000000000000000 ) ) ;
#129 = ORIENTED_EDGE ( 'NONE', *, *, #3, .F. ) ;
#130 = AXIS2_PLACEMENT_3D ( 'NONE', #162, #128, #50 ) ;
#131 = CARTESIAN_POINT ( 'NONE',  ( 0.0000000000000000000, 0.0000000000000000000, 0.0000000000000000000 ) ) ;
#132 = ADVANCED_FACE ( 'NONE', ( #91, #165 ), #12, .T. ) ;
#133 = MECHANICAL_CONTEXT ( 'NONE', #10, 'mechanical' ) ;
#134 = DIRECTION ( 'NONE',  ( 3.491481338843133355E-15, 4.729606485745526798E-16, 1.000000000000000000 ) ) ;
#135 = CARTESIAN_POINT ( 'NONE',  ( 3.249922794286218324E-30, 4.402388108172245946E-31, 9.308148831071934777E-16 ) ) ;
#136 = DATE_AND_TIME ( #122, #234 ) ;
#137 = ORIENTED_EDGE ( 'NONE', *, *, #56, .F. ) ;
#138 = DATE_AND_TIME ( #209, #113 ) ;
#139 = ADVANCED_FACE ( 'NONE', ( #35 ), #145, .T. ) ;
#140 = DATE_AND_TIME ( #66, #77 ) ;
#141 = EDGE_LOOP ( 'NONE', ( #137 ) ) ;
#142 = CIRCLE ( 'NONE', #120, 1.999999999999995337 ) ;
#143 = CARTESIAN_POINT ( 'NONE',  ( 4.764887540811740844E-14, 6.454579254414214958E-15, 13.64718031799802489 ) ) ;
#144 = FACE_OUTER_BOUND ( 'NONE', #141, .T. ) ;
#145 = PLANE ( 'NONE',  #150 ) ;
#146 = AXIS2_PLACEMENT_3D ( 'NONE', #181, #238, #37 ) ;
#147 = DIRECTION ( 'NONE',  ( -3.491481338843133355E-15, 9.031770143711729009E-17, -1.000000000000000000 ) ) ;
#148 = CARTESIAN_POINT ( 'NONE',  ( 0.0000000000000000000, 0.0000000000000000000, 0.0000000000000000000 ) ) ;
#149 = DIRECTION ( 'NONE',  ( -3.491481338843133355E-15, -4.729606485745526798E-16, -1.000000000000000000 ) ) ;
#150 = AXIS2_PLACEMENT_3D ( 'NONE', #94, #161, #51 ) ;
#151 = APPROVAL_ROLE ( '' ) ;
#152 = CARTESIAN_POINT ( 'NONE',  ( 2.793185071074506684E-13, -7.225416114969383207E-15, 80.00000000000000000 ) ) ;
#153 = PRODUCT_RELATED_PRODUCT_CATEGORY ( 'detail', '', ( #99 ) ) ;
#154 = LOCAL_TIME ( 11, 2, 50.00000000000000000, #222 ) ;
#155 = VERTEX_POINT ( 'NONE', #206 ) ;
#156 = ORIENTED_EDGE ( 'NONE', *, *, #26, .T. ) ;
#157 = AXIS2_PLACEMENT_3D ( 'NONE', #240, #32, #216 ) ;
#158 = APPROVAL_STATUS ( 'not_yet_approved' ) ;
#159 = ORIENTED_EDGE ( 'NONE', *, *, #16, .F. ) ;
#160 = APPROVAL_DATE_TIME ( #138, #83 ) ;
#161 = DIRECTION ( 'NONE',  ( -3.491481338843133355E-15, 9.031770143711729009E-17, -1.000000000000000000 ) ) ;
#162 = CARTESIAN_POINT ( 'NONE',  ( 4.764887540811741475E-14, -1.232581957419449261E-15, 13.64718031799802667 ) ) ;
#163 = MANIFOLD_SOLID_BREP ( 'Corps-Déplacer/Copier1[2]', #228 ) ;
#164 = CARTESIAN_POINT ( 'NONE',  ( 4.764887540811741475E-14, -1.232581957419449261E-15, 13.64718031799802667 ) ) ;
#165 = FACE_OUTER_BOUND ( 'NONE', #45, .T. ) ;
#166 = EDGE_LOOP ( 'NONE', ( #179 ) ) ;
#167 = EDGE_CURVE ( 'NONE', #155, #155, #48, .T. ) ;
#168 = DIRECTION ( 'NONE',  ( 1.651333278505195828E-30, -1.000000000000000000, 4.729606485745526798E-16 ) ) ;
#169 = AXIS2_PLACEMENT_3D ( 'NONE', #143, #214, #11 ) ;
#170 = ADVANCED_FACE ( 'NONE', ( #92, #217 ), #52, .T. ) ;
#171 = PLANE ( 'NONE',  #107 ) ;
#172 = APPROVAL_PERSON_ORGANIZATION ( #61, #87, #22 ) ;
#173 = DATE_TIME_ROLE ( 'classification_date' ) ;
#174 = PERSON_AND_ORGANIZATION ( #88, #93 ) ;
#175 = EDGE_LOOP ( 'NONE', ( #129 ) ) ;
#176 = PERSON_AND_ORGANIZATION_ROLE ( 'classification_officer' ) ;
#177 = EDGE_LOOP ( 'NONE', ( #27 ) ) ;
#178 = CC_DESIGN_PERSON_AND_ORGANIZATION_ASSIGNMENT ( #79, #29, ( #202 ) ) ;
#179 = ORIENTED_EDGE ( 'NONE', *, *, #223, .T. ) ;
#180 = DIRECTION ( 'NONE',  ( 0.0000000000000000000, 1.000000000000000000, 0.0000000000000000000 ) ) ;
#181 = CARTESIAN_POINT ( 'NONE',  ( -1.624961397143109162E-30, 1.968059892324148130, -4.654074415535967389E-16 ) ) ;
#182 = FACE_OUTER_BOUND ( 'NONE', #80, .T. ) ;
#183 = EDGE_LOOP ( 'NONE', ( #192 ) ) ;
#184 = CC_DESIGN_APPROVAL ( #230, ( #33 ) ) ;
#185 = ADVANCED_FACE ( 'NONE', ( #220 ), #171, .T. ) ;
#186 = ADVANCED_BREP_SHAPE_REPRESENTATION ( '321343', ( #243, #163, #196 ), #100 ) ;
#187 = DIRECTION ( 'NONE',  ( 1.000000000000000000, 0.0000000000000000000, 0.0000000000000000000 ) ) ;
#188 = AXIS2_PLACEMENT_3D ( 'NONE', #112, #49, #124 ) ;
#189 =( NAMED_UNIT ( * ) SI_UNIT ( $, .STERADIAN. ) SOLID_ANGLE_UNIT ( ) );
#190 = CC_DESIGN_PERSON_AND_ORGANIZATION_ASSIGNMENT ( #121, #6, ( #33 ) ) ;
#191 = COORDINATED_UNIVERSAL_TIME_OFFSET ( 1, 0, .AHEAD. ) ;
#192 = ORIENTED_EDGE ( 'NONE', *, *, #167, .T. ) ;
#193 = PERSON_AND_ORGANIZATION ( #88, #93 ) ;
#194 = EDGE_LOOP ( 'NONE', ( #159 ) ) ;
#195 = DATE_AND_TIME ( #103, #104 ) ;
#196 = AXIS2_PLACEMENT_3D ( 'NONE', #131, #114, #187 ) ;
#197 = FACE_OUTER_BOUND ( 'NONE', #166, .T. ) ;
#198 = DIRECTION ( 'NONE',  ( -3.491481338843133355E-15, -4.729606485745526798E-16, -1.000000000000000000 ) ) ;
#199 = DIRECTION ( 'NONE',  ( -3.491481338843133355E-15, -4.729606485745526798E-16, -1.000000000000000000 ) ) ;
#200 = FACE_OUTER_BOUND ( 'NONE', #177, .T. ) ;
#201 = CARTESIAN_POINT ( 'NONE',  ( 1.396592535537256498E-15, 1.891842594298215156E-16, 0.4000000000000009659 ) ) ;
#202 = PRODUCT_DEFINITION_FORMATION_WITH_SPECIFIED_SOURCE ( 'ANY', '', #99, .NOT_KNOWN. ) ;
#203 = FACE_OUTER_BOUND ( 'NONE', #232, .T. ) ;
#204 = CIRCLE ( 'NONE', #130, 2.198999999999999400 ) ;
#205 = CARTESIAN_POINT ( 'NONE',  ( 4.885231259955590439E-14, 1.999999999999990452, 13.99185842870425134 ) ) ;
#206 = CARTESIAN_POINT ( 'NONE',  ( 4.764887540811741475E-14, 2.198999999999998067, 13.64718031799802667 ) ) ;
#207 = ADVANCED_FACE ( 'NONE', ( #203, #98 ), #28, .T. ) ;
#208 = CONICAL_SURFACE ( 'NONE', #71, 1.999999999999995337, 0.7853981633974516097 ) ;
#209 = CALENDAR_DATE ( 2021, 26, 11 ) ;
#210 = EDGE_LOOP ( 'NONE', ( #105 ) ) ;
#211 = SECURITY_CLASSIFICATION_LEVEL ( 'unclassified' ) ;
#212 = APPROVAL_ROLE ( '' ) ;
#213 = APPROVAL_PERSON_ORGANIZATION ( #174, #83, #212 ) ;
#214 = DIRECTION ( 'NONE',  ( 3.491481338843133355E-15, 4.729606485745526798E-16, 1.000000000000000000 ) ) ;
#215 = CARTESIAN_POINT ( 'NONE',  ( 2.779219145719134403E-13, -7.189289034394536528E-15, 79.60000000000000853 ) ) ;
#216 = DIRECTION ( 'NONE',  ( 0.0000000000000000000, 1.000000000000000000, 0.0000000000000000000 ) ) ;
#217 = FACE_OUTER_BOUND ( 'NONE', #194, .T. ) ;
#218 = CC_DESIGN_PERSON_AND_ORGANIZATION_ASSIGNMENT ( #233, #119, ( #202 ) ) ;
#219 = DIRECTION ( 'NONE',  ( -3.491481338843133355E-15, -4.729606485745526798E-16, -1.000000000000000000 ) ) ;
#220 = FACE_OUTER_BOUND ( 'NONE', #175, .T. ) ;
#221 = APPLICATION_PROTOCOL_DEFINITION ( 'international standard', 'config_control_design', 1994, #59 ) ;
#222 = COORDINATED_UNIVERSAL_TIME_OFFSET ( 1, 0, .AHEAD. ) ;
#223 = EDGE_CURVE ( 'NONE', #115, #115, #81, .T. ) ;
#224 = CARTESIAN_POINT ( 'NONE',  ( 1.396592535537252948E-15, 2.198999999999997623, 0.3999999999999999112 ) ) ;
#225 = APPROVAL_PERSON_ORGANIZATION ( #55, #230, #151 ) ;
#226 = DIRECTION ( 'NONE',  ( -3.153425691349006731E-31, -1.000000000000000000, -9.031770143711729009E-17 ) ) ;
#227 = ORIENTED_EDGE ( 'NONE', *, *, #223, .F. ) ;
#228 = CLOSED_SHELL ( 'NONE', ( #70, #170, #207, #90 ) ) ;
#229 = APPROVAL_DATE_TIME ( #195, #87 ) ;
#230 = APPROVAL ( #2, 'UNSPECIFIED' ) ;
#231 = COORDINATED_UNIVERSAL_TIME_OFFSET ( 1, 0, .AHEAD. ) ;
#232 = EDGE_LOOP ( 'NONE', ( #68 ) ) ;
#233 = PERSON_AND_ORGANIZATION ( #88, #93 ) ;
#234 = LOCAL_TIME ( 11, 2, 50.00000000000000000, #44 ) ;
#235 = PLANE ( 'NONE',  #169 ) ;
#236 = PLANE ( 'NONE',  #146 ) ;
#237 = FACE_OUTER_BOUND ( 'NONE', #17, .T. ) ;
#238 = DIRECTION ( 'NONE',  ( -3.491481338843133355E-15, -4.729606485745526798E-16, -1.000000000000000000 ) ) ;
#239 = AXIS2_PLACEMENT_3D ( 'NONE', #164, #69, #72 ) ;
#240 = CARTESIAN_POINT ( 'NONE',  ( 2.793185071074506684E-13, -7.225416114969383207E-15, 80.00000000000000000 ) ) ;
#241 = VERTEX_POINT ( 'NONE', #54 ) ;
#242 = CARTESIAN_POINT ( 'NONE',  ( 2.779219145719134403E-13, 1.999999999999988010, 79.60000000000000853 ) ) ;
#243 = MANIFOLD_SOLID_BREP ( 'Corps-Déplacer/Copier1[1]', #58 ) ;
ENDSEC;
END-ISO-10303-21;
