ISO-10303-21;
HEADER;
FILE_DESCRIPTION (( 'STEP AP203' ),
    '1' );
FILE_NAME ('321342.step',
    '2021-11-26T10:02:49',
    ( '' ),
    ( '' ),
    'SwSTEP 2.0',
    'SolidWorks 2019',
    '' );
FILE_SCHEMA (( 'CONFIG_CONTROL_DESIGN' ));
ENDSEC;

DATA;
#1 = ADVANCED_FACE ( 'NONE', ( #71, #138 ), #20, .T. ) ;
#2 = PLANE ( 'NONE',  #145 ) ;
#3 = EDGE_CURVE ( 'NONE', #153, #153, #61, .T. ) ;
#4 = EDGE_CURVE ( 'NONE', #211, #211, #132, .T. ) ;
#5 = PLANE ( 'NONE',  #124 ) ;
#6 = DIRECTION ( 'NONE',  ( -1.649743707882471831E-30, 1.000000000000000000, -4.725053774536562997E-16 ) ) ;
#7 = APPLICATION_CONTEXT ( 'configuration controlled 3d designs of mechanical parts and assemblies' ) ;
#8 = AXIS2_PLACEMENT_3D ( 'NONE', #34, #99, #73 ) ;
#9 = ADVANCED_FACE ( 'NONE', ( #68, #135 ), #175, .T. ) ;
#10 = EDGE_LOOP ( 'NONE', ( #13 ) ) ;
#11 = FACE_OUTER_BOUND ( 'NONE', #41, .T. ) ;
#12 = CARTESIAN_POINT ( 'NONE',  ( 0.0000000000000000000, 0.0000000000000000000, 0.0000000000000000000 ) ) ;
#13 = ORIENTED_EDGE ( 'NONE', *, *, #3, .T. ) ;
#14 = AXIS2_PLACEMENT_3D ( 'NONE', #32, #218, #183 ) ;
#15 = ORIENTED_EDGE ( 'NONE', *, *, #141, .T. ) ;
#16 = ADVANCED_FACE ( 'NONE', ( #54, #51 ), #96, .T. ) ;
#17 = COORDINATED_UNIVERSAL_TIME_OFFSET ( 1, 0, .AHEAD. ) ;
#18 = DIRECTION ( 'NONE',  ( -3.491481338843133355E-15, -4.725053774536562997E-16, -1.000000000000000000 ) ) ;
#19 = CALENDAR_DATE ( 2021, 26, 11 ) ;
#20 = CONICAL_SURFACE ( 'NONE', #22, 2.193999999999999506, 0.5235987755982955960 ) ;
#21 = AXIS2_PLACEMENT_3D ( 'NONE', #151, #66, #194 ) ;
#22 = AXIS2_PLACEMENT_3D ( 'NONE', #202, #181, #140 ) ;
#23 = ORIENTED_EDGE ( 'NONE', *, *, #4, .F. ) ;
#24 = CIRCLE ( 'NONE', #76, 2.193999999999997730 ) ;
#25 = DIRECTION ( 'NONE',  ( -3.491481338843133355E-15, -4.725053774536562997E-16, -1.000000000000000000 ) ) ;
#26 = ORIENTED_EDGE ( 'NONE', *, *, #123, .F. ) ;
#27 = FACE_OUTER_BOUND ( 'NONE', #198, .T. ) ;
#28 = CARTESIAN_POINT ( 'NONE',  ( 1.396592535537252948E-15, 2.193999999999997730, 0.3999999999999999112 ) ) ;
#29 = CLOSED_SHELL ( 'NONE', ( #78, #16, #60, #1, #162 ) ) ;
#30 = LOCAL_TIME ( 11, 2, 49.00000000000000000, #107 ) ;
#31 = DIRECTION ( 'NONE',  ( 3.491481338843133355E-15, -9.031770143711729009E-17, 1.000000000000000000 ) ) ;
#32 = CARTESIAN_POINT ( 'NONE',  ( 2.779219145719134403E-13, -7.189289034394536528E-15, 79.60000000000000853 ) ) ;
#33 = CALENDAR_DATE ( 2021, 26, 11 ) ;
#34 = CARTESIAN_POINT ( 'NONE',  ( 4.767911252348020242E-14, 6.452458103936764869E-15, 13.65584057203587598 ) ) ;
#35 = EDGE_CURVE ( 'NONE', #156, #156, #242, .T. ) ;
#36 = CARTESIAN_POINT ( 'NONE',  ( 2.793185071074506684E-13, -7.225416114969383207E-15, 80.00000000000000000 ) ) ;
#37 = CALENDAR_DATE ( 2021, 26, 11 ) ;
#38 = EDGE_LOOP ( 'NONE', ( #157 ) ) ;
#39 = PERSON_AND_ORGANIZATION ( #148, #226 ) ;
#40 = AXIS2_PLACEMENT_3D ( 'NONE', #204, #49, #121 ) ;
#41 = EDGE_LOOP ( 'NONE', ( #110 ) ) ;
#42 = ADVANCED_FACE ( 'NONE', ( #239 ), #238, .T. ) ;
#43 = CYLINDRICAL_SURFACE ( 'NONE', #167, 2.193999999999994621 ) ;
#44 =( NAMED_UNIT ( * ) PLANE_ANGLE_UNIT ( ) SI_UNIT ( $, .RADIAN. ) );
#45 = FACE_OUTER_BOUND ( 'NONE', #102, .T. ) ;
#46 = VERTEX_POINT ( 'NONE', #114 ) ;
#47 = DIRECTION ( 'NONE',  ( 3.153425691349006731E-31, 1.000000000000000000, 9.031770143711729009E-17 ) ) ;
#48 = CIRCLE ( 'NONE', #136, 2.193999999999991513 ) ;
#49 = DIRECTION ( 'NONE',  ( -3.491481338843133355E-15, 9.031770143711729009E-17, -1.000000000000000000 ) ) ;
#50 = PERSON_AND_ORGANIZATION ( #148, #226 ) ;
#51 = FACE_OUTER_BOUND ( 'NONE', #180, .T. ) ;
#52 = PRODUCT_DEFINITION ( 'UNKNOWN', '', #159, #223 ) ;
#53 = APPROVAL_ROLE ( '' ) ;
#54 = FACE_BOUND ( 'NONE', #81, .T. ) ;
#55 = APPLICATION_PROTOCOL_DEFINITION ( 'international standard', 'config_control_design', 1994, #7 ) ;
#56 = EDGE_LOOP ( 'NONE', ( #125 ) ) ;
#57 = CC_DESIGN_APPROVAL ( #152, ( #154 ) ) ;
#58 = PERSON_AND_ORGANIZATION_ROLE ( 'classification_officer' ) ;
#59 = APPROVAL_PERSON_ORGANIZATION ( #103, #152, #53 ) ;
#60 = ADVANCED_FACE ( 'NONE', ( #75, #143 ), #220, .T. ) ;
#61 = CIRCLE ( 'NONE', #170, 1.963059892324147793 ) ;
#62 = LOCAL_TIME ( 11, 2, 49.00000000000000000, #88 ) ;
#63 = DIRECTION ( 'NONE',  ( 0.0000000000000000000, 1.000000000000000000, 0.0000000000000000000 ) ) ;
#64 = CARTESIAN_POINT ( 'NONE',  ( 4.767911252348019611E-14, 2.193999999999998174, 13.65584057203587420 ) ) ;
#65 = CC_DESIGN_PERSON_AND_ORGANIZATION_ASSIGNMENT ( #241, #216, ( #159 ) ) ;
#66 = DIRECTION ( 'NONE',  ( -3.491481338843133355E-15, 9.031770143711729009E-17, -1.000000000000000000 ) ) ;
#67 = DIRECTION ( 'NONE',  ( 3.153425691349006731E-31, 1.000000000000000000, 9.031770143711729009E-17 ) ) ;
#68 = FACE_OUTER_BOUND ( 'NONE', #38, .T. ) ;
#69 = APPROVAL_DATE_TIME ( #86, #189 ) ;
#70 = AXIS2_PLACEMENT_3D ( 'NONE', #113, #213, #63 ) ;
#71 = FACE_BOUND ( 'NONE', #87, .T. ) ;
#72 = APPLICATION_PROTOCOL_DEFINITION ( 'international standard', 'config_control_design', 1994, #240 ) ;
#73 = DIRECTION ( 'NONE',  ( 1.649743707882471831E-30, -1.000000000000000000, 4.725053774536562997E-16 ) ) ;
#74 = DIRECTION ( 'NONE',  ( 0.0000000000000000000, 0.0000000000000000000, 1.000000000000000000 ) ) ;
#75 = FACE_OUTER_BOUND ( 'NONE', #85, .T. ) ;
#76 = AXIS2_PLACEMENT_3D ( 'NONE', #95, #25, #212 ) ;
#77 = APPROVAL_STATUS ( 'not_yet_approved' ) ;
#78 = ADVANCED_FACE ( 'NONE', ( #45 ), #2, .T. ) ;
#79 = CC_DESIGN_DATE_AND_TIME_ASSIGNMENT ( #122, #184, ( #154 ) ) ;
#80 = CARTESIAN_POINT ( 'NONE',  ( -1.619272852779102851E-30, 1.963059892324147793, -4.637781776933776619E-16 ) ) ;
#81 = EDGE_LOOP ( 'NONE', ( #129 ) ) ;
#82 = CC_DESIGN_PERSON_AND_ORGANIZATION_ASSIGNMENT ( #221, #126, ( #185 ) ) ;
#83 = DIRECTION ( 'NONE',  ( -1.649743707882472181E-30, 1.000000000000000000, -4.725053774536562997E-16 ) ) ;
#84 = CARTESIAN_POINT ( 'NONE',  ( 2.779219145719134403E-13, 1.999999999999988010, 79.60000000000000853 ) ) ;
#85 = EDGE_LOOP ( 'NONE', ( #179 ) ) ;
#86 = DATE_AND_TIME ( #139, #116 ) ;
#87 = EDGE_LOOP ( 'NONE', ( #15 ) ) ;
#88 = COORDINATED_UNIVERSAL_TIME_OFFSET ( 1, 0, .AHEAD. ) ;
#89 = CARTESIAN_POINT ( 'NONE',  ( 3.238545705558205701E-30, 4.382753658115565549E-31, 9.275563553867553237E-16 ) ) ;
#90 = DATE_AND_TIME ( #33, #187 ) ;
#91 =( GEOMETRIC_REPRESENTATION_CONTEXT ( 3 ) GLOBAL_UNCERTAINTY_ASSIGNED_CONTEXT ( ( #105 ) ) GLOBAL_UNIT_ASSIGNED_CONTEXT ( ( #210, #44, #193 ) ) REPRESENTATION_CONTEXT ( 'NONE', 'WORKASPACE' ) );
#92 = CIRCLE ( 'NONE', #21, 1.999999999999991784 ) ;
#93 = CARTESIAN_POINT ( 'NONE',  ( 0.0000000000000000000, 0.0000000000000000000, 0.0000000000000000000 ) ) ;
#94 = ADVANCED_BREP_SHAPE_REPRESENTATION ( '321342', ( #230, #155, #207 ), #91 ) ;
#95 = CARTESIAN_POINT ( 'NONE',  ( 1.396592535537256498E-15, 1.890021509814629685E-16, 0.4000000000000009659 ) ) ;
#96 = CONICAL_SURFACE ( 'NONE', #40, 1.999999999999995337, 0.7853981633974516097 ) ;
#97 = DIRECTION ( 'NONE',  ( -3.491481338843133355E-15, 9.031770143711729009E-17, -1.000000000000000000 ) ) ;
#98 = EDGE_LOOP ( 'NONE', ( #229 ) ) ;
#99 = DIRECTION ( 'NONE',  ( 3.491481338843133355E-15, 4.725053774536562997E-16, 1.000000000000000000 ) ) ;
#100 = PERSON_AND_ORGANIZATION ( #148, #226 ) ;
#101 = CC_DESIGN_SECURITY_CLASSIFICATION ( #154, ( #159 ) ) ;
#102 = EDGE_LOOP ( 'NONE', ( #214 ) ) ;
#103 = PERSON_AND_ORGANIZATION ( #148, #226 ) ;
#104 = EDGE_LOOP ( 'NONE', ( #118 ) ) ;
#105 = UNCERTAINTY_MEASURE_WITH_UNIT (LENGTH_MEASURE( 1.000000000000000082E-05 ), #210, 'distance_accuracy_value', 'NONE');
#106 = SECURITY_CLASSIFICATION_LEVEL ( 'unclassified' ) ;
#107 = COORDINATED_UNIVERSAL_TIME_OFFSET ( 1, 0, .AHEAD. ) ;
#108 = APPROVAL ( #165, 'UNSPECIFIED' ) ;
#109 = CLOSED_SHELL ( 'NONE', ( #42, #222, #9, #199 ) ) ;
#110 = ORIENTED_EDGE ( 'NONE', *, *, #168, .T. ) ;
#111 = CARTESIAN_POINT ( 'NONE',  ( 0.0000000000000000000, 0.0000000000000000000, 0.0000000000000000000 ) ) ;
#112 = DIRECTION ( 'NONE',  ( -3.491481338843133355E-15, -4.725053774536562997E-16, -1.000000000000000000 ) ) ;
#113 = CARTESIAN_POINT ( 'NONE',  ( 4.767911252348019611E-14, -1.233364131658009149E-15, 13.65584057203587420 ) ) ;
#114 = CARTESIAN_POINT ( 'NONE',  ( 4.885231259955590439E-14, 1.999999999999990452, 13.99185842870425134 ) ) ;
#115 = CIRCLE ( 'NONE', #70, 2.193999999999999506 ) ;
#116 = LOCAL_TIME ( 11, 2, 49.00000000000000000, #186 ) ;
#117 = DIRECTION ( 'NONE',  ( -2.809013592542925337E-30, 1.000000000000000000, -7.906670355409360519E-16 ) ) ;
#118 = ORIENTED_EDGE ( 'NONE', *, *, #141, .F. ) ;
#119 = PERSON_AND_ORGANIZATION_ROLE ( 'design_supplier' ) ;
#120 = DIRECTION ( 'NONE',  ( -3.491481338843133355E-15, 9.031770143711729009E-17, -1.000000000000000000 ) ) ;
#121 = DIRECTION ( 'NONE',  ( 0.0000000000000000000, 1.000000000000000000, 0.0000000000000000000 ) ) ;
#122 = DATE_AND_TIME ( #37, #62 ) ;
#123 = EDGE_CURVE ( 'NONE', #133, #133, #115, .T. ) ;
#124 = AXIS2_PLACEMENT_3D ( 'NONE', #130, #97, #67 ) ;
#125 = ORIENTED_EDGE ( 'NONE', *, *, #3, .F. ) ;
#126 = PERSON_AND_ORGANIZATION_ROLE ( 'design_owner' ) ;
#127 = LOCAL_TIME ( 11, 2, 49.00000000000000000, #224 ) ;
#128 = AXIS2_PLACEMENT_3D ( 'NONE', #80, #171, #6 ) ;
#129 = ORIENTED_EDGE ( 'NONE', *, *, #35, .T. ) ;
#130 = CARTESIAN_POINT ( 'NONE',  ( 4.767911252348020242E-14, 2.193999999999998174, 13.65584057203587598 ) ) ;
#131 = VERTEX_POINT ( 'NONE', #28 ) ;
#132 = CIRCLE ( 'NONE', #14, 1.999999999999995337 ) ;
#133 = VERTEX_POINT ( 'NONE', #195 ) ;
#134 = FACE_OUTER_BOUND ( 'NONE', #10, .T. ) ;
#135 = FACE_BOUND ( 'NONE', #56, .T. ) ;
#136 = AXIS2_PLACEMENT_3D ( 'NONE', #209, #191, #117 ) ;
#137 = PERSON_AND_ORGANIZATION ( #148, #226 ) ;
#138 = FACE_OUTER_BOUND ( 'NONE', #161, .T. ) ;
#139 = CALENDAR_DATE ( 2021, 26, 11 ) ;
#140 = DIRECTION ( 'NONE',  ( 0.0000000000000000000, 1.000000000000000000, 0.0000000000000000000 ) ) ;
#141 = EDGE_CURVE ( 'NONE', #46, #46, #92, .T. ) ;
#142 = DATE_AND_TIME ( #160, #30 ) ;
#143 = FACE_OUTER_BOUND ( 'NONE', #104, .T. ) ;
#144 = SHAPE_DEFINITION_REPRESENTATION ( #147, #94 ) ;
#145 = AXIS2_PLACEMENT_3D ( 'NONE', #227, #31, #174 ) ;
#146 = DIRECTION ( 'NONE',  ( 1.000000000000000000, 0.0000000000000000000, 0.0000000000000000000 ) ) ;
#147 = PRODUCT_DEFINITION_SHAPE ( 'NONE', 'NONE',  #52 ) ;
#148 = PERSON ( 'UNSPECIFIED', 'UNSPECIFIED', 'UNSPECIFIED', ('UNSPECIFIED'), ('UNSPECIFIED'), ('UNSPECIFIED') ) ;
#149 = AXIS2_PLACEMENT_3D ( 'NONE', #89, #217, #236 ) ;
#150 = CC_DESIGN_APPROVAL ( #108, ( #52 ) ) ;
#151 = CARTESIAN_POINT ( 'NONE',  ( 4.885231259955590439E-14, -1.263712492114123682E-15, 13.99185842870425134 ) ) ;
#152 = APPROVAL ( #77, 'UNSPECIFIED' ) ;
#153 = VERTEX_POINT ( 'NONE', #176 ) ;
#154 = SECURITY_CLASSIFICATION ( '', '', #106 ) ;
#155 = MANIFOLD_SOLID_BREP ( 'Corps-Déplacer/Copier1[2]', #109 ) ;
#156 = VERTEX_POINT ( 'NONE', #234 ) ;
#157 = ORIENTED_EDGE ( 'NONE', *, *, #232, .T. ) ;
#158 = DIRECTION ( 'NONE',  ( -1.649743707882471831E-30, 1.000000000000000000, -4.725053774536562997E-16 ) ) ;
#159 = PRODUCT_DEFINITION_FORMATION_WITH_SPECIFIED_SOURCE ( 'ANY', '', #185, .NOT_KNOWN. ) ;
#160 = CALENDAR_DATE ( 2021, 26, 11 ) ;
#161 = EDGE_LOOP ( 'NONE', ( #26 ) ) ;
#162 = ADVANCED_FACE ( 'NONE', ( #173 ), #5, .T. ) ;
#163 = APPROVAL_ROLE ( '' ) ;
#164 = CARTESIAN_POINT ( 'NONE',  ( 3.238545705558205701E-30, 4.382753658115565549E-31, 9.275563553867553237E-16 ) ) ;
#165 = APPROVAL_STATUS ( 'not_yet_approved' ) ;
#166 = APPROVAL_PERSON_ORGANIZATION ( #137, #189, #163 ) ;
#167 = AXIS2_PLACEMENT_3D ( 'NONE', #111, #112, #83 ) ;
#168 = EDGE_CURVE ( 'NONE', #228, #228, #48, .T. ) ;
#169 = CC_DESIGN_DATE_AND_TIME_ASSIGNMENT ( #142, #237, ( #52 ) ) ;
#170 = AXIS2_PLACEMENT_3D ( 'NONE', #164, #18, #158 ) ;
#171 = DIRECTION ( 'NONE',  ( -3.491481338843133355E-15, -4.725053774536562997E-16, -1.000000000000000000 ) ) ;
#172 = EDGE_LOOP ( 'NONE', ( #177 ) ) ;
#173 = FACE_OUTER_BOUND ( 'NONE', #98, .T. ) ;
#174 = DIRECTION ( 'NONE',  ( -3.153425691349006731E-31, -1.000000000000000000, -9.031770143711729009E-17 ) ) ;
#175 = CONICAL_SURFACE ( 'NONE', #149, 1.963059892324147793, 0.5235987755982979275 ) ;
#176 = CARTESIAN_POINT ( 'NONE',  ( 0.0000000000000000000, 1.963059892324147793, 0.0000000000000000000 ) ) ;
#177 = ORIENTED_EDGE ( 'NONE', *, *, #168, .F. ) ;
#178 = DIRECTION ( 'NONE',  ( -3.491481338843133355E-15, 9.031770143711729009E-17, -1.000000000000000000 ) ) ;
#179 = ORIENTED_EDGE ( 'NONE', *, *, #4, .T. ) ;
#180 = EDGE_LOOP ( 'NONE', ( #23 ) ) ;
#181 = DIRECTION ( 'NONE',  ( -3.491481338843133355E-15, 9.031770143711729009E-17, -1.000000000000000000 ) ) ;
#182 = APPROVAL_STATUS ( 'not_yet_approved' ) ;
#183 = DIRECTION ( 'NONE',  ( 0.0000000000000000000, 1.000000000000000000, 0.0000000000000000000 ) ) ;
#184 = DATE_TIME_ROLE ( 'classification_date' ) ;
#185 = PRODUCT ( '321342', '321342', '', ( #243 ) ) ;
#186 = COORDINATED_UNIVERSAL_TIME_OFFSET ( 1, 0, .AHEAD. ) ;
#187 = LOCAL_TIME ( 11, 2, 49.00000000000000000, #17 ) ;
#188 = PRODUCT_RELATED_PRODUCT_CATEGORY ( 'detail', '', ( #185 ) ) ;
#189 = APPROVAL ( #182, 'UNSPECIFIED' ) ;
#190 = ORIENTED_EDGE ( 'NONE', *, *, #232, .F. ) ;
#191 = DIRECTION ( 'NONE',  ( -3.491481338843133355E-15, -4.725053774536562997E-16, -1.000000000000000000 ) ) ;
#192 = CC_DESIGN_APPROVAL ( #189, ( #159 ) ) ;
#193 =( NAMED_UNIT ( * ) SI_UNIT ( $, .STERADIAN. ) SOLID_ANGLE_UNIT ( ) );
#194 = DIRECTION ( 'NONE',  ( 0.0000000000000000000, 1.000000000000000000, 0.0000000000000000000 ) ) ;
#195 = CARTESIAN_POINT ( 'NONE',  ( 4.767911252348019611E-14, 2.193999999999998174, 13.65584057203587420 ) ) ;
#196 = AXIS2_PLACEMENT_3D ( 'NONE', #93, #178, #47 ) ;
#197 = PLANE ( 'NONE',  #128 ) ;
#198 = EDGE_LOOP ( 'NONE', ( #190 ) ) ;
#199 = ADVANCED_FACE ( 'NONE', ( #134 ), #197, .T. ) ;
#200 = PERSON_AND_ORGANIZATION_ROLE ( 'creator' ) ;
#201 = DIRECTION ( 'NONE',  ( 0.0000000000000000000, 1.000000000000000000, 0.0000000000000000000 ) ) ;
#202 = CARTESIAN_POINT ( 'NONE',  ( 4.767911252348019611E-14, -1.233364131658009149E-15, 13.65584057203587420 ) ) ;
#203 = APPROVAL_DATE_TIME ( #90, #152 ) ;
#204 = CARTESIAN_POINT ( 'NONE',  ( 2.779219145719134403E-13, -7.189289034394536528E-15, 79.60000000000000853 ) ) ;
#205 = APPROVAL_DATE_TIME ( #235, #108 ) ;
#206 = APPROVAL_ROLE ( '' ) ;
#207 = AXIS2_PLACEMENT_3D ( 'NONE', #12, #74, #146 ) ;
#208 = CC_DESIGN_PERSON_AND_ORGANIZATION_ASSIGNMENT ( #219, #58, ( #154 ) ) ;
#209 = CARTESIAN_POINT ( 'NONE',  ( 4.767911252348020242E-14, 6.452458103936764869E-15, 13.65584057203587598 ) ) ;
#210 =( LENGTH_UNIT ( ) NAMED_UNIT ( * ) SI_UNIT ( .MILLI., .METRE. ) );
#211 = VERTEX_POINT ( 'NONE', #84 ) ;
#212 = DIRECTION ( 'NONE',  ( -1.667851820572357266E-30, 1.000000000000000000, -4.694585523524294712E-16 ) ) ;
#213 = DIRECTION ( 'NONE',  ( -3.491481338843133355E-15, 9.031770143711729009E-17, -1.000000000000000000 ) ) ;
#214 = ORIENTED_EDGE ( 'NONE', *, *, #35, .F. ) ;
#215 = CC_DESIGN_PERSON_AND_ORGANIZATION_ASSIGNMENT ( #39, #200, ( #52 ) ) ;
#216 = PERSON_AND_ORGANIZATION_ROLE ( 'creator' ) ;
#217 = DIRECTION ( 'NONE',  ( 3.491481338843133355E-15, 4.725053774536562997E-16, 1.000000000000000000 ) ) ;
#218 = DIRECTION ( 'NONE',  ( -3.491481338843133355E-15, 9.031770143711729009E-17, -1.000000000000000000 ) ) ;
#219 = PERSON_AND_ORGANIZATION ( #148, #226 ) ;
#220 = CYLINDRICAL_SURFACE ( 'NONE', #196, 1.999999999999993561 ) ;
#221 = PERSON_AND_ORGANIZATION ( #148, #226 ) ;
#222 = ADVANCED_FACE ( 'NONE', ( #11, #27 ), #43, .T. ) ;
#223 = DESIGN_CONTEXT ( 'detailed design', #7, 'design' ) ;
#224 = COORDINATED_UNIVERSAL_TIME_OFFSET ( 1, 0, .AHEAD. ) ;
#225 = AXIS2_PLACEMENT_3D ( 'NONE', #36, #120, #201 ) ;
#226 = ORGANIZATION ( 'UNSPECIFIED', 'UNSPECIFIED', '' ) ;
#227 = CARTESIAN_POINT ( 'NONE',  ( 2.793185071074506684E-13, -7.225416114969383207E-15, 80.00000000000000000 ) ) ;
#228 = VERTEX_POINT ( 'NONE', #64 ) ;
#229 = ORIENTED_EDGE ( 'NONE', *, *, #123, .T. ) ;
#230 = MANIFOLD_SOLID_BREP ( 'Corps-Déplacer/Copier1[1]', #29 ) ;
#231 = CC_DESIGN_PERSON_AND_ORGANIZATION_ASSIGNMENT ( #50, #119, ( #159 ) ) ;
#232 = EDGE_CURVE ( 'NONE', #131, #131, #24, .T. ) ;
#233 = APPROVAL_PERSON_ORGANIZATION ( #100, #108, #206 ) ;
#234 = CARTESIAN_POINT ( 'NONE',  ( 2.793185071074506684E-13, 1.599999999999987876, 80.00000000000000000 ) ) ;
#235 = DATE_AND_TIME ( #19, #127 ) ;
#236 = DIRECTION ( 'NONE',  ( 1.649743707882471831E-30, -1.000000000000000000, 4.725053774536562997E-16 ) ) ;
#237 = DATE_TIME_ROLE ( 'creation_date' ) ;
#238 = PLANE ( 'NONE',  #8 ) ;
#239 = FACE_OUTER_BOUND ( 'NONE', #172, .T. ) ;
#240 = APPLICATION_CONTEXT ( 'configuration controlled 3d designs of mechanical parts and assemblies' ) ;
#241 = PERSON_AND_ORGANIZATION ( #148, #226 ) ;
#242 = CIRCLE ( 'NONE', #225, 1.599999999999994982 ) ;
#243 = MECHANICAL_CONTEXT ( 'NONE', #240, 'mechanical' ) ;
ENDSEC;
END-ISO-10303-21;
