ISO-10303-21;
HEADER;
FILE_DESCRIPTION (( 'STEP AP203' ),
    '1' );
FILE_NAME ('321341.step',
    '2021-11-26T10:02:48',
    ( '' ),
    ( '' ),
    'SwSTEP 2.0',
    'SolidWorks 2019',
    '' );
FILE_SCHEMA (( 'CONFIG_CONTROL_DESIGN' ));
ENDSEC;

DATA;
#1 = PRODUCT_RELATED_PRODUCT_CATEGORY ( 'detail', '', ( #119 ) ) ;
#2 = APPROVAL_PERSON_ORGANIZATION ( #109, #82, #118 ) ;
#3 = DIRECTION ( 'NONE',  ( -1.648156152128141524E-30, 1.000000000000000000, -4.720506834140036537E-16 ) ) ;
#4 = EDGE_CURVE ( 'NONE', #172, #172, #101, .T. ) ;
#5 = DIRECTION ( 'NONE',  ( -3.491481338843133355E-15, -4.720506834140036537E-16, -1.000000000000000000 ) ) ;
#6 = FACE_OUTER_BOUND ( 'NONE', #33, .T. ) ;
#7 = AXIS2_PLACEMENT_3D ( 'NONE', #171, #159, #107 ) ;
#8 = CARTESIAN_POINT ( 'NONE',  ( 4.770934963884297115E-14, 2.188999999999998280, 13.66450082607371996 ) ) ;
#9 = PLANE ( 'NONE',  #102 ) ;
#10 = PERSON_AND_ORGANIZATION_ROLE ( 'design_supplier' ) ;
#11 = EDGE_LOOP ( 'NONE', ( #68 ) ) ;
#12 = AXIS2_PLACEMENT_3D ( 'NONE', #147, #232, #43 ) ;
#13 = PERSON_AND_ORGANIZATION ( #18, #120 ) ;
#14 = EDGE_LOOP ( 'NONE', ( #95 ) ) ;
#15 = EDGE_CURVE ( 'NONE', #145, #145, #144, .T. ) ;
#16 = DATE_AND_TIME ( #54, #139 ) ;
#17 = EDGE_LOOP ( 'NONE', ( #186 ) ) ;
#18 = PERSON ( 'UNSPECIFIED', 'UNSPECIFIED', 'UNSPECIFIED', ('UNSPECIFIED'), ('UNSPECIFIED'), ('UNSPECIFIED') ) ;
#19 = CLOSED_SHELL ( 'NONE', ( #58, #240, #90, #32, #140 ) ) ;
#20 = CONICAL_SURFACE ( 'NONE', #122, 2.188999999999999613, 0.5235987755982947078 ) ;
#21 = CC_DESIGN_DATE_AND_TIME_ASSIGNMENT ( #16, #149, ( #174 ) ) ;
#22 = AXIS2_PLACEMENT_3D ( 'NONE', #215, #192, #24 ) ;
#23 = DIRECTION ( 'NONE',  ( -3.491481338843133355E-15, -4.720506834140036537E-16, -1.000000000000000000 ) ) ;
#24 = DIRECTION ( 'NONE',  ( 0.0000000000000000000, 1.000000000000000000, 0.0000000000000000000 ) ) ;
#25 = CARTESIAN_POINT ( 'NONE',  ( 4.770934963884296484E-14, 2.188999999999998280, 13.66450082607371819 ) ) ;
#26 = FACE_OUTER_BOUND ( 'NONE', #135, .T. ) ;
#27 = FACE_OUTER_BOUND ( 'NONE', #148, .T. ) ;
#28 = FACE_OUTER_BOUND ( 'NONE', #239, .T. ) ;
#29 = PERSON_AND_ORGANIZATION ( #18, #120 ) ;
#30 = DIRECTION ( 'NONE',  ( 3.491481338843133355E-15, 4.720506834140036537E-16, 1.000000000000000000 ) ) ;
#31 = COORDINATED_UNIVERSAL_TIME_OFFSET ( 1, 0, .AHEAD. ) ;
#32 = ADVANCED_FACE ( 'NONE', ( #223, #28 ), #20, .T. ) ;
#33 = EDGE_LOOP ( 'NONE', ( #113 ) ) ;
#34 = CONICAL_SURFACE ( 'NONE', #225, 1.958059892324148787, 0.5235987755982979275 ) ;
#35 = COORDINATED_UNIVERSAL_TIME_OFFSET ( 1, 0, .AHEAD. ) ;
#36 = ORIENTED_EDGE ( 'NONE', *, *, #100, .F. ) ;
#37 = ADVANCED_FACE ( 'NONE', ( #164, #131 ), #34, .T. ) ;
#38 = PERSON_AND_ORGANIZATION ( #18, #120 ) ;
#39 = CIRCLE ( 'NONE', #170, 2.188999999999991619 ) ;
#40 = APPROVAL ( #187, 'UNSPECIFIED' ) ;
#41 = CIRCLE ( 'NONE', #12, 2.188999999999999613 ) ;
#42 = CC_DESIGN_DATE_AND_TIME_ASSIGNMENT ( #226, #111, ( #63 ) ) ;
#43 = DIRECTION ( 'NONE',  ( 0.0000000000000000000, 1.000000000000000000, 0.0000000000000000000 ) ) ;
#44 = AXIS2_PLACEMENT_3D ( 'NONE', #160, #157, #195 ) ;
#45 = CARTESIAN_POINT ( 'NONE',  ( 2.779219145719134403E-13, -7.189289034394536528E-15, 79.60000000000000853 ) ) ;
#46 = PLANE ( 'NONE',  #243 ) ;
#47 = VERTEX_POINT ( 'NONE', #216 ) ;
#48 = DIRECTION ( 'NONE',  ( -1.671661440993947032E-30, 1.000000000000000000, -4.705308651718728901E-16 ) ) ;
#49 = LOCAL_TIME ( 11, 2, 48.00000000000000000, #200 ) ;
#50 =( NAMED_UNIT ( * ) SI_UNIT ( $, .STERADIAN. ) SOLID_ANGLE_UNIT ( ) );
#51 = DIRECTION ( 'NONE',  ( 0.0000000000000000000, 1.000000000000000000, 0.0000000000000000000 ) ) ;
#52 = ADVANCED_FACE ( 'NONE', ( #6, #146 ), #234, .T. ) ;
#53 = CARTESIAN_POINT ( 'NONE',  ( 3.227188457769412473E-30, 4.363181037366212804E-31, 9.243035103371648805E-16 ) ) ;
#54 = CALENDAR_DATE ( 2021, 26, 11 ) ;
#55 = APPROVAL_PERSON_ORGANIZATION ( #38, #40, #89 ) ;
#56 = DATE_AND_TIME ( #69, #49 ) ;
#57 = DIRECTION ( 'NONE',  ( 0.0000000000000000000, 0.0000000000000000000, 1.000000000000000000 ) ) ;
#58 = ADVANCED_FACE ( 'NONE', ( #26 ), #9, .T. ) ;
#59 = ADVANCED_BREP_SHAPE_REPRESENTATION ( '321341', ( #81, #242, #202 ), #60 ) ;
#60 =( GEOMETRIC_REPRESENTATION_CONTEXT ( 3 ) GLOBAL_UNCERTAINTY_ASSIGNED_CONTEXT ( ( #205 ) ) GLOBAL_UNIT_ASSIGNED_CONTEXT ( ( #97, #117, #50 ) ) REPRESENTATION_CONTEXT ( 'NONE', 'WORKASPACE' ) );
#61 = CARTESIAN_POINT ( 'NONE',  ( 0.0000000000000000000, 0.0000000000000000000, 0.0000000000000000000 ) ) ;
#62 = FACE_OUTER_BOUND ( 'NONE', #161, .T. ) ;
#63 = SECURITY_CLASSIFICATION ( '', '', #167 ) ;
#64 = CARTESIAN_POINT ( 'NONE',  ( 4.770934963884297115E-14, 6.450336953459316359E-15, 13.66450082607371996 ) ) ;
#65 = EDGE_CURVE ( 'NONE', #124, #124, #41, .T. ) ;
#66 = CARTESIAN_POINT ( 'NONE',  ( 2.793185071074506684E-13, -7.225416114969383207E-15, 80.00000000000000000 ) ) ;
#67 = FACE_OUTER_BOUND ( 'NONE', #11, .T. ) ;
#68 = ORIENTED_EDGE ( 'NONE', *, *, #4, .F. ) ;
#69 = CALENDAR_DATE ( 2021, 26, 11 ) ;
#70 = PRODUCT_DEFINITION_FORMATION_WITH_SPECIFIED_SOURCE ( 'ANY', '', #119, .NOT_KNOWN. ) ;
#71 = DIRECTION ( 'NONE',  ( -3.491481338843133355E-15, 9.031770143711729009E-17, -1.000000000000000000 ) ) ;
#72 = DIRECTION ( 'NONE',  ( 1.000000000000000000, 0.0000000000000000000, 0.0000000000000000000 ) ) ;
#73 = DIRECTION ( 'NONE',  ( -3.491481338843133355E-15, 9.031770143711729009E-17, -1.000000000000000000 ) ) ;
#74 = PERSON_AND_ORGANIZATION_ROLE ( 'creator' ) ;
#75 = EDGE_LOOP ( 'NONE', ( #88 ) ) ;
#76 = DATE_AND_TIME ( #183, #196 ) ;
#77 = CIRCLE ( 'NONE', #22, 1.599999999999994982 ) ;
#78 = PRODUCT_DEFINITION_SHAPE ( 'NONE', 'NONE',  #174 ) ;
#79 = AXIS2_PLACEMENT_3D ( 'NONE', #8, #211, #156 ) ;
#80 = DATE_AND_TIME ( #168, #127 ) ;
#81 = MANIFOLD_SOLID_BREP ( 'Corps-Déplacer/Copier1[1]', #19 ) ;
#82 = APPROVAL ( #114, 'UNSPECIFIED' ) ;
#83 = FACE_BOUND ( 'NONE', #93, .T. ) ;
#84 = DIRECTION ( 'NONE',  ( 3.491481338843133355E-15, 4.720506834140036537E-16, 1.000000000000000000 ) ) ;
#85 = AXIS2_PLACEMENT_3D ( 'NONE', #193, #23, #3 ) ;
#86 = FACE_OUTER_BOUND ( 'NONE', #150, .T. ) ;
#87 = DIRECTION ( 'NONE',  ( 1.648156152128141524E-30, -1.000000000000000000, 4.720506834140036537E-16 ) ) ;
#88 = ORIENTED_EDGE ( 'NONE', *, *, #15, .T. ) ;
#89 = APPROVAL_ROLE ( '' ) ;
#90 = ADVANCED_FACE ( 'NONE', ( #62, #67 ), #158, .T. ) ;
#91 = ORIENTED_EDGE ( 'NONE', *, *, #65, .T. ) ;
#92 = PERSON_AND_ORGANIZATION ( #18, #120 ) ;
#93 = EDGE_LOOP ( 'NONE', ( #165 ) ) ;
#94 = APPLICATION_PROTOCOL_DEFINITION ( 'international standard', 'config_control_design', 1994, #96 ) ;
#95 = ORIENTED_EDGE ( 'NONE', *, *, #190, .F. ) ;
#96 = APPLICATION_CONTEXT ( 'configuration controlled 3d designs of mechanical parts and assemblies' ) ;
#97 =( LENGTH_UNIT ( ) NAMED_UNIT ( * ) SI_UNIT ( .MILLI., .METRE. ) );
#98 = MECHANICAL_CONTEXT ( 'NONE', #96, 'mechanical' ) ;
#99 = CONICAL_SURFACE ( 'NONE', #44, 1.999999999999995337, 0.7853981633974516097 ) ;
#100 = EDGE_CURVE ( 'NONE', #105, #105, #77, .T. ) ;
#101 = CIRCLE ( 'NONE', #141, 1.999999999999991784 ) ;
#102 = AXIS2_PLACEMENT_3D ( 'NONE', #66, #235, #103 ) ;
#103 = DIRECTION ( 'NONE',  ( -3.153425691349006731E-31, -1.000000000000000000, -9.031770143711729009E-17 ) ) ;
#104 = DIRECTION ( 'NONE',  ( -2.815429795358235911E-30, 1.000000000000000000, -7.924730360789464410E-16 ) ) ;
#105 = VERTEX_POINT ( 'NONE', #173 ) ;
#106 = VERTEX_POINT ( 'NONE', #176 ) ;
#107 = DIRECTION ( 'NONE',  ( 3.153425691349006731E-31, 1.000000000000000000, 9.031770143711729009E-17 ) ) ;
#108 = CARTESIAN_POINT ( 'NONE',  ( 4.770934963884296484E-14, -1.234146305896568642E-15, 13.66450082607371819 ) ) ;
#109 = PERSON_AND_ORGANIZATION ( #18, #120 ) ;
#110 = DIRECTION ( 'NONE',  ( 1.648156152128141524E-30, -1.000000000000000000, 4.720506834140036537E-16 ) ) ;
#111 = DATE_TIME_ROLE ( 'classification_date' ) ;
#112 = CIRCLE ( 'NONE', #209, 1.999999999999995337 ) ;
#113 = ORIENTED_EDGE ( 'NONE', *, *, #138, .T. ) ;
#114 = APPROVAL_STATUS ( 'not_yet_approved' ) ;
#115 = ORIENTED_EDGE ( 'NONE', *, *, #190, .T. ) ;
#116 = DESIGN_CONTEXT ( 'detailed design', #136, 'design' ) ;
#117 =( NAMED_UNIT ( * ) PLANE_ANGLE_UNIT ( ) SI_UNIT ( $, .RADIAN. ) );
#118 = APPROVAL_ROLE ( '' ) ;
#119 = PRODUCT ( '321341', '321341', '', ( #98 ) ) ;
#120 = ORGANIZATION ( 'UNSPECIFIED', 'UNSPECIFIED', '' ) ;
#121 = CARTESIAN_POINT ( 'NONE',  ( 1.396592535537256498E-15, 1.888202733656018904E-16, 0.4000000000000009659 ) ) ;
#122 = AXIS2_PLACEMENT_3D ( 'NONE', #108, #71, #51 ) ;
#123 = CARTESIAN_POINT ( 'NONE',  ( 0.0000000000000000000, 1.958059892324148787, 0.0000000000000000000 ) ) ;
#124 = VERTEX_POINT ( 'NONE', #25 ) ;
#125 = DIRECTION ( 'NONE',  ( -3.491481338843133355E-15, -4.720506834140036537E-16, -1.000000000000000000 ) ) ;
#126 = AXIS2_PLACEMENT_3D ( 'NONE', #61, #5, #230 ) ;
#127 = LOCAL_TIME ( 11, 2, 48.00000000000000000, #162 ) ;
#128 = DIRECTION ( 'NONE',  ( -3.491481338843133355E-15, 9.031770143711729009E-17, -1.000000000000000000 ) ) ;
#129 = CARTESIAN_POINT ( 'NONE',  ( 4.885231259955590439E-14, -1.263712492114123682E-15, 13.99185842870425134 ) ) ;
#130 = CARTESIAN_POINT ( 'NONE',  ( 2.779219145719134403E-13, 1.999999999999988010, 79.60000000000000853 ) ) ;
#131 = FACE_BOUND ( 'NONE', #201, .T. ) ;
#132 = APPROVAL_ROLE ( '' ) ;
#133 = ORIENTED_EDGE ( 'NONE', *, *, #4, .T. ) ;
#134 = CLOSED_SHELL ( 'NONE', ( #231, #52, #37, #151 ) ) ;
#135 = EDGE_LOOP ( 'NONE', ( #36 ) ) ;
#136 = APPLICATION_CONTEXT ( 'configuration controlled 3d designs of mechanical parts and assemblies' ) ;
#137 = PERSON_AND_ORGANIZATION_ROLE ( 'creator' ) ;
#138 = EDGE_CURVE ( 'NONE', #47, #47, #39, .T. ) ;
#139 = LOCAL_TIME ( 11, 2, 48.00000000000000000, #35 ) ;
#140 = ADVANCED_FACE ( 'NONE', ( #27 ), #143, .T. ) ;
#141 = AXIS2_PLACEMENT_3D ( 'NONE', #129, #73, #198 ) ;
#142 = PLANE ( 'NONE',  #85 ) ;
#143 = PLANE ( 'NONE',  #79 ) ;
#144 = CIRCLE ( 'NONE', #208, 1.958059892324148787 ) ;
#145 = VERTEX_POINT ( 'NONE', #123 ) ;
#146 = FACE_OUTER_BOUND ( 'NONE', #204, .T. ) ;
#147 = CARTESIAN_POINT ( 'NONE',  ( 4.770934963884296484E-14, -1.234146305896568642E-15, 13.66450082607371819 ) ) ;
#148 = EDGE_LOOP ( 'NONE', ( #91 ) ) ;
#149 = DATE_TIME_ROLE ( 'creation_date' ) ;
#150 = EDGE_LOOP ( 'NONE', ( #221 ) ) ;
#151 = ADVANCED_FACE ( 'NONE', ( #217 ), #142, .T. ) ;
#152 = PERSON_AND_ORGANIZATION_ROLE ( 'classification_officer' ) ;
#153 = EDGE_CURVE ( 'NONE', #106, #106, #155, .T. ) ;
#154 = AXIS2_PLACEMENT_3D ( 'NONE', #121, #125, #48 ) ;
#155 = CIRCLE ( 'NONE', #154, 2.188999999999998725 ) ;
#156 = DIRECTION ( 'NONE',  ( 3.153425691349006731E-31, 1.000000000000000000, 9.031770143711729009E-17 ) ) ;
#157 = DIRECTION ( 'NONE',  ( -3.491481338843133355E-15, 9.031770143711729009E-17, -1.000000000000000000 ) ) ;
#158 = CYLINDRICAL_SURFACE ( 'NONE', #7, 1.999999999999993561 ) ;
#159 = DIRECTION ( 'NONE',  ( -3.491481338843133355E-15, 9.031770143711729009E-17, -1.000000000000000000 ) ) ;
#160 = CARTESIAN_POINT ( 'NONE',  ( 2.779219145719134403E-13, -7.189289034394536528E-15, 79.60000000000000853 ) ) ;
#161 = EDGE_LOOP ( 'NONE', ( #115 ) ) ;
#162 = COORDINATED_UNIVERSAL_TIME_OFFSET ( 1, 0, .AHEAD. ) ;
#163 = DIRECTION ( 'NONE',  ( -3.491481338843133355E-15, -4.720506834140036537E-16, -1.000000000000000000 ) ) ;
#164 = FACE_OUTER_BOUND ( 'NONE', #17, .T. ) ;
#165 = ORIENTED_EDGE ( 'NONE', *, *, #100, .T. ) ;
#166 = PERSON_AND_ORGANIZATION_ROLE ( 'design_owner' ) ;
#167 = SECURITY_CLASSIFICATION_LEVEL ( 'unclassified' ) ;
#168 = CALENDAR_DATE ( 2021, 26, 11 ) ;
#169 = APPROVAL_DATE_TIME ( #80, #40 ) ;
#170 = AXIS2_PLACEMENT_3D ( 'NONE', #64, #178, #104 ) ;
#171 = CARTESIAN_POINT ( 'NONE',  ( 0.0000000000000000000, 0.0000000000000000000, 0.0000000000000000000 ) ) ;
#172 = VERTEX_POINT ( 'NONE', #212 ) ;
#173 = CARTESIAN_POINT ( 'NONE',  ( 2.793185071074506684E-13, 1.599999999999987876, 80.00000000000000000 ) ) ;
#174 = PRODUCT_DEFINITION ( 'UNKNOWN', '', #70, #116 ) ;
#175 = CC_DESIGN_APPROVAL ( #40, ( #63 ) ) ;
#176 = CARTESIAN_POINT ( 'NONE',  ( 1.396592535537252948E-15, 2.188999999999998725, 0.3999999999999999112 ) ) ;
#177 = ORIENTED_EDGE ( 'NONE', *, *, #153, .F. ) ;
#178 = DIRECTION ( 'NONE',  ( -3.491481338843133355E-15, -4.720506834140036537E-16, -1.000000000000000000 ) ) ;
#179 = ORIENTED_EDGE ( 'NONE', *, *, #15, .F. ) ;
#180 = PERSON_AND_ORGANIZATION ( #18, #120 ) ;
#181 = CC_DESIGN_PERSON_AND_ORGANIZATION_ASSIGNMENT ( #206, #166, ( #119 ) ) ;
#182 = APPROVAL_PERSON_ORGANIZATION ( #241, #189, #132 ) ;
#183 = CALENDAR_DATE ( 2021, 26, 11 ) ;
#184 = DIRECTION ( 'NONE',  ( -1.648156152128141524E-30, 1.000000000000000000, -4.720506834140036537E-16 ) ) ;
#185 = VERTEX_POINT ( 'NONE', #130 ) ;
#186 = ORIENTED_EDGE ( 'NONE', *, *, #153, .T. ) ;
#187 = APPROVAL_STATUS ( 'not_yet_approved' ) ;
#188 = CC_DESIGN_APPROVAL ( #189, ( #174 ) ) ;
#189 = APPROVAL ( #224, 'UNSPECIFIED' ) ;
#190 = EDGE_CURVE ( 'NONE', #185, #185, #112, .T. ) ;
#191 = CARTESIAN_POINT ( 'NONE',  ( 4.770934963884297115E-14, 6.450336953459316359E-15, 13.66450082607371996 ) ) ;
#192 = DIRECTION ( 'NONE',  ( -3.491481338843133355E-15, 9.031770143711729009E-17, -1.000000000000000000 ) ) ;
#193 = CARTESIAN_POINT ( 'NONE',  ( -1.613594228884706236E-30, 1.958059892324148787, -4.621517551685824402E-16 ) ) ;
#194 = CC_DESIGN_PERSON_AND_ORGANIZATION_ASSIGNMENT ( #92, #152, ( #63 ) ) ;
#195 = DIRECTION ( 'NONE',  ( 0.0000000000000000000, 1.000000000000000000, 0.0000000000000000000 ) ) ;
#196 = LOCAL_TIME ( 11, 2, 48.00000000000000000, #31 ) ;
#197 = DIRECTION ( 'NONE',  ( 0.0000000000000000000, 1.000000000000000000, 0.0000000000000000000 ) ) ;
#198 = DIRECTION ( 'NONE',  ( 0.0000000000000000000, 1.000000000000000000, 0.0000000000000000000 ) ) ;
#199 = CC_DESIGN_PERSON_AND_ORGANIZATION_ASSIGNMENT ( #13, #74, ( #174 ) ) ;
#200 = COORDINATED_UNIVERSAL_TIME_OFFSET ( 1, 0, .AHEAD. ) ;
#201 = EDGE_LOOP ( 'NONE', ( #179 ) ) ;
#202 = AXIS2_PLACEMENT_3D ( 'NONE', #227, #57, #72 ) ;
#203 = APPROVAL_DATE_TIME ( #56, #189 ) ;
#204 = EDGE_LOOP ( 'NONE', ( #177 ) ) ;
#205 = UNCERTAINTY_MEASURE_WITH_UNIT (LENGTH_MEASURE( 1.000000000000000082E-05 ), #97, 'distance_accuracy_value', 'NONE');
#206 = PERSON_AND_ORGANIZATION ( #18, #120 ) ;
#207 = CALENDAR_DATE ( 2021, 26, 11 ) ;
#208 = AXIS2_PLACEMENT_3D ( 'NONE', #53, #163, #184 ) ;
#209 = AXIS2_PLACEMENT_3D ( 'NONE', #45, #128, #197 ) ;
#210 = SHAPE_DEFINITION_REPRESENTATION ( #78, #59 ) ;
#211 = DIRECTION ( 'NONE',  ( -3.491481338843133355E-15, 9.031770143711729009E-17, -1.000000000000000000 ) ) ;
#212 = CARTESIAN_POINT ( 'NONE',  ( 4.885231259955590439E-14, 1.999999999999990452, 13.99185842870425134 ) ) ;
#213 = CC_DESIGN_APPROVAL ( #82, ( #70 ) ) ;
#214 = CC_DESIGN_PERSON_AND_ORGANIZATION_ASSIGNMENT ( #180, #10, ( #70 ) ) ;
#215 = CARTESIAN_POINT ( 'NONE',  ( 2.793185071074506684E-13, -7.225416114969383207E-15, 80.00000000000000000 ) ) ;
#216 = CARTESIAN_POINT ( 'NONE',  ( 4.770934963884296484E-14, 2.188999999999998280, 13.66450082607371819 ) ) ;
#217 = FACE_OUTER_BOUND ( 'NONE', #75, .T. ) ;
#218 = EDGE_LOOP ( 'NONE', ( #133 ) ) ;
#219 = CC_DESIGN_PERSON_AND_ORGANIZATION_ASSIGNMENT ( #29, #137, ( #70 ) ) ;
#220 = APPROVAL_DATE_TIME ( #76, #82 ) ;
#221 = ORIENTED_EDGE ( 'NONE', *, *, #138, .F. ) ;
#222 = COORDINATED_UNIVERSAL_TIME_OFFSET ( 1, 0, .AHEAD. ) ;
#223 = FACE_BOUND ( 'NONE', #218, .T. ) ;
#224 = APPROVAL_STATUS ( 'not_yet_approved' ) ;
#225 = AXIS2_PLACEMENT_3D ( 'NONE', #237, #30, #110 ) ;
#226 = DATE_AND_TIME ( #207, #233 ) ;
#227 = CARTESIAN_POINT ( 'NONE',  ( 0.0000000000000000000, 0.0000000000000000000, 0.0000000000000000000 ) ) ;
#228 = CC_DESIGN_SECURITY_CLASSIFICATION ( #63, ( #70 ) ) ;
#229 = FACE_OUTER_BOUND ( 'NONE', #14, .T. ) ;
#230 = DIRECTION ( 'NONE',  ( -1.648156152128141524E-30, 1.000000000000000000, -4.720506834140036537E-16 ) ) ;
#231 = ADVANCED_FACE ( 'NONE', ( #86 ), #46, .T. ) ;
#232 = DIRECTION ( 'NONE',  ( -3.491481338843133355E-15, 9.031770143711729009E-17, -1.000000000000000000 ) ) ;
#233 = LOCAL_TIME ( 11, 2, 48.00000000000000000, #222 ) ;
#234 = CYLINDRICAL_SURFACE ( 'NONE', #126, 2.188999999999995172 ) ;
#235 = DIRECTION ( 'NONE',  ( 3.491481338843133355E-15, -9.031770143711729009E-17, 1.000000000000000000 ) ) ;
#236 = ORIENTED_EDGE ( 'NONE', *, *, #65, .F. ) ;
#237 = CARTESIAN_POINT ( 'NONE',  ( 3.227188457769412473E-30, 4.363181037366212804E-31, 9.243035103371648805E-16 ) ) ;
#238 = APPLICATION_PROTOCOL_DEFINITION ( 'international standard', 'config_control_design', 1994, #136 ) ;
#239 = EDGE_LOOP ( 'NONE', ( #236 ) ) ;
#240 = ADVANCED_FACE ( 'NONE', ( #83, #229 ), #99, .T. ) ;
#241 = PERSON_AND_ORGANIZATION ( #18, #120 ) ;
#242 = MANIFOLD_SOLID_BREP ( 'Corps-Déplacer/Copier1[2]', #134 ) ;
#243 = AXIS2_PLACEMENT_3D ( 'NONE', #191, #84, #87 ) ;
ENDSEC;
END-ISO-10303-21;
