ISO-10303-21;
HEADER;
FILE_DESCRIPTION (( 'STEP AP203' ),
    '1' );
FILE_NAME ('321340.step',
    '2021-11-26T10:02:48',
    ( '' ),
    ( '' ),
    'SwSTEP 2.0',
    'SolidWorks 2019',
    '' );
FILE_SCHEMA (( 'CONFIG_CONTROL_DESIGN' ));
ENDSEC;

DATA;
#1 = APPLICATION_CONTEXT ( 'configuration controlled 3d designs of mechanical parts and assemblies' ) ;
#2 = APPROVAL_DATE_TIME ( #123, #156 ) ;
#3 = PRODUCT_DEFINITION_SHAPE ( 'NONE', 'NONE',  #169 ) ;
#4 = SHAPE_DEFINITION_REPRESENTATION ( #3, #152 ) ;
#5 = CIRCLE ( 'NONE', #33, 1.999999999999995337 ) ;
#6 = ORIENTED_EDGE ( 'NONE', *, *, #176, .T. ) ;
#7 = CYLINDRICAL_SURFACE ( 'NONE', #50, 2.183999999999994834 ) ;
#8 = CARTESIAN_POINT ( 'NONE',  ( 4.773958675420572726E-14, 2.183999999999998387, 13.67316108011155862 ) ) ;
#9 = ORIENTED_EDGE ( 'NONE', *, *, #101, .T. ) ;
#10 = DIRECTION ( 'NONE',  ( -3.491481338843133355E-15, 9.031770143711729009E-17, -1.000000000000000000 ) ) ;
#11 = ORIENTED_EDGE ( 'NONE', *, *, #93, .T. ) ;
#12 = CIRCLE ( 'NONE', #125, 1.599999999999994982 ) ;
#13 = PRODUCT_RELATED_PRODUCT_CATEGORY ( 'detail', '', ( #183 ) ) ;
#14 = VERTEX_POINT ( 'NONE', #199 ) ;
#15 = CC_DESIGN_PERSON_AND_ORGANIZATION_ASSIGNMENT ( #70, #121, ( #169 ) ) ;
#16 = AXIS2_PLACEMENT_3D ( 'NONE', #49, #68, #100 ) ;
#17 =( NAMED_UNIT ( * ) SI_UNIT ( $, .STERADIAN. ) SOLID_ANGLE_UNIT ( ) );
#18 = APPLICATION_PROTOCOL_DEFINITION ( 'international standard', 'config_control_design', 1994, #1 ) ;
#19 = APPROVAL_STATUS ( 'not_yet_approved' ) ;
#20 = CALENDAR_DATE ( 2021, 26, 11 ) ;
#21 = CC_DESIGN_PERSON_AND_ORGANIZATION_ASSIGNMENT ( #108, #180, ( #185 ) ) ;
#22 = MECHANICAL_CONTEXT ( 'NONE', #1, 'mechanical' ) ;
#23 = CIRCLE ( 'NONE', #227, 2.183999999999999719 ) ;
#24 = EDGE_LOOP ( 'NONE', ( #110 ) ) ;
#25 = DIRECTION ( 'NONE',  ( 0.0000000000000000000, 1.000000000000000000, 0.0000000000000000000 ) ) ;
#26 = FACE_OUTER_BOUND ( 'NONE', #225, .T. ) ;
#27 = AXIS2_PLACEMENT_3D ( 'NONE', #232, #61, #134 ) ;
#28 = DIRECTION ( 'NONE',  ( 0.0000000000000000000, 1.000000000000000000, 0.0000000000000000000 ) ) ;
#29 = DIRECTION ( 'NONE',  ( -3.491481338843133355E-15, -4.715965653590662507E-16, -1.000000000000000000 ) ) ;
#30 = AXIS2_PLACEMENT_3D ( 'NONE', #193, #29, #173 ) ;
#31 = LOCAL_TIME ( 11, 2, 48.00000000000000000, #71 ) ;
#32 = CC_DESIGN_DATE_AND_TIME_ASSIGNMENT ( #205, #226, ( #185 ) ) ;
#33 = AXIS2_PLACEMENT_3D ( 'NONE', #129, #40, #28 ) ;
#34 = ORGANIZATION ( 'UNSPECIFIED', 'UNSPECIFIED', '' ) ;
#35 = SECURITY_CLASSIFICATION_LEVEL ( 'unclassified' ) ;
#36 = ORIENTED_EDGE ( 'NONE', *, *, #83, .F. ) ;
#37 = PERSON_AND_ORGANIZATION_ROLE ( 'design_supplier' ) ;
#38 = EDGE_LOOP ( 'NONE', ( #11 ) ) ;
#39 = ORIENTED_EDGE ( 'NONE', *, *, #130, .T. ) ;
#40 = DIRECTION ( 'NONE',  ( -3.491481338843133355E-15, 9.031770143711729009E-17, -1.000000000000000000 ) ) ;
#41 = ORIENTED_EDGE ( 'NONE', *, *, #107, .T. ) ;
#42 = DIRECTION ( 'NONE',  ( -1.675488504732487131E-30, 1.000000000000000000, -4.716080878485486603E-16 ) ) ;
#43 = APPROVAL ( #88, 'UNSPECIFIED' ) ;
#44 = ADVANCED_FACE ( 'NONE', ( #26 ), #97, .T. ) ;
#45 = DIRECTION ( 'NONE',  ( 3.153425691349006731E-31, 1.000000000000000000, 9.031770143711729009E-17 ) ) ;
#46 = ADVANCED_FACE ( 'NONE', ( #91, #212 ), #7, .T. ) ;
#47 = VERTEX_POINT ( 'NONE', #81 ) ;
#48 = ADVANCED_FACE ( 'NONE', ( #167, #149 ), #178, .T. ) ;
#49 = CARTESIAN_POINT ( 'NONE',  ( 2.793185071074506684E-13, -7.225416114969383207E-15, 80.00000000000000000 ) ) ;
#50 = AXIS2_PLACEMENT_3D ( 'NONE', #148, #186, #115 ) ;
#51 = LOCAL_TIME ( 11, 2, 48.00000000000000000, #87 ) ;
#52 = DATE_AND_TIME ( #222, #200 ) ;
#53 = PERSON_AND_ORGANIZATION ( #122, #34 ) ;
#54 = AXIS2_PLACEMENT_3D ( 'NONE', #220, #174, #177 ) ;
#55 = PERSON_AND_ORGANIZATION ( #122, #34 ) ;
#56 = ORIENTED_EDGE ( 'NONE', *, *, #147, .F. ) ;
#57 = LOCAL_TIME ( 11, 2, 48.00000000000000000, #126 ) ;
#58 = EDGE_LOOP ( 'NONE', ( #59 ) ) ;
#59 = ORIENTED_EDGE ( 'NONE', *, *, #130, .F. ) ;
#60 = DIRECTION ( 'NONE',  ( 0.0000000000000000000, 1.000000000000000000, 0.0000000000000000000 ) ) ;
#61 = DIRECTION ( 'NONE',  ( -3.491481338843133355E-15, -4.715965653590662507E-16, -1.000000000000000000 ) ) ;
#62 = CC_DESIGN_PERSON_AND_ORGANIZATION_ASSIGNMENT ( #53, #37, ( #153 ) ) ;
#63 = CC_DESIGN_APPROVAL ( #43, ( #185 ) ) ;
#64 = EDGE_LOOP ( 'NONE', ( #39 ) ) ;
#65 = ADVANCED_FACE ( 'NONE', ( #96 ), #188, .T. ) ;
#66 = DIRECTION ( 'NONE',  ( 1.646570607413696003E-30, -1.000000000000000000, 4.715965653590662507E-16 ) ) ;
#67 = APPROVAL_PERSON_ORGANIZATION ( #55, #156, #223 ) ;
#68 = DIRECTION ( 'NONE',  ( 3.491481338843133355E-15, -9.031770143711729009E-17, 1.000000000000000000 ) ) ;
#69 = APPLICATION_PROTOCOL_DEFINITION ( 'international standard', 'config_control_design', 1994, #208 ) ;
#70 = PERSON_AND_ORGANIZATION ( #122, #34 ) ;
#71 = COORDINATED_UNIVERSAL_TIME_OFFSET ( 1, 0, .AHEAD. ) ;
#72 = ORIENTED_EDGE ( 'NONE', *, *, #176, .F. ) ;
#73 = CARTESIAN_POINT ( 'NONE',  ( 4.885231259955590439E-14, -1.263712492114123682E-15, 13.99185842870425134 ) ) ;
#74 = LOCAL_TIME ( 11, 2, 48.00000000000000000, #109 ) ;
#75 = FACE_OUTER_BOUND ( 'NONE', #166, .T. ) ;
#76 = EDGE_LOOP ( 'NONE', ( #56 ) ) ;
#77 = DIRECTION ( 'NONE',  ( 0.0000000000000000000, 1.000000000000000000, 0.0000000000000000000 ) ) ;
#78 = ORIENTED_EDGE ( 'NONE', *, *, #147, .T. ) ;
#79 = CIRCLE ( 'NONE', #221, 2.183999999999997943 ) ;
#80 = CC_DESIGN_SECURITY_CLASSIFICATION ( #185, ( #153 ) ) ;
#81 = CARTESIAN_POINT ( 'NONE',  ( 1.396592535537252948E-15, 2.183999999999997943, 0.3999999999999999112 ) ) ;
#82 = VERTEX_POINT ( 'NONE', #216 ) ;
#83 = EDGE_CURVE ( 'NONE', #104, #104, #189, .T. ) ;
#84 = DIRECTION ( 'NONE',  ( -3.491481338843133355E-15, -4.715965653590662507E-16, -1.000000000000000000 ) ) ;
#85 = CARTESIAN_POINT ( 'NONE',  ( 4.885231259955590439E-14, 1.999999999999990452, 13.99185842870425134 ) ) ;
#86 = PERSON_AND_ORGANIZATION_ROLE ( 'creator' ) ;
#87 = COORDINATED_UNIVERSAL_TIME_OFFSET ( 1, 0, .AHEAD. ) ;
#88 = APPROVAL_STATUS ( 'not_yet_approved' ) ;
#89 = APPROVAL_ROLE ( '' ) ;
#90 = EDGE_LOOP ( 'NONE', ( #78 ) ) ;
#91 = FACE_OUTER_BOUND ( 'NONE', #90, .T. ) ;
#92 = CARTESIAN_POINT ( 'NONE',  ( 4.773958675420573357E-14, -1.234928480135128136E-15, 13.67316108011156039 ) ) ;
#93 = EDGE_CURVE ( 'NONE', #242, #242, #5, .T. ) ;
#94 = CLOSED_SHELL ( 'NONE', ( #195, #117, #218, #48, #44 ) ) ;
#95 = CARTESIAN_POINT ( 'NONE',  ( 4.773958675420572726E-14, 6.448215802981871003E-15, 13.67316108011155862 ) ) ;
#96 = FACE_OUTER_BOUND ( 'NONE', #76, .T. ) ;
#97 = PLANE ( 'NONE',  #236 ) ;
#98 = CIRCLE ( 'NONE', #114, 2.183999999999991726 ) ;
#99 = CARTESIAN_POINT ( 'NONE',  ( 2.779219145719134403E-13, 1.999999999999988010, 79.60000000000000853 ) ) ;
#100 = DIRECTION ( 'NONE',  ( -3.153425691349006731E-31, -1.000000000000000000, -9.031770143711729009E-17 ) ) ;
#101 = EDGE_CURVE ( 'NONE', #47, #47, #79, .T. ) ;
#102 = CARTESIAN_POINT ( 'NONE',  ( 0.0000000000000000000, 1.953059892324148228, 0.0000000000000000000 ) ) ;
#103 = AXIS2_PLACEMENT_3D ( 'NONE', #73, #210, #60 ) ;
#104 = VERTEX_POINT ( 'NONE', #85 ) ;
#105 = DATE_TIME_ROLE ( 'creation_date' ) ;
#106 = DIRECTION ( 'NONE',  ( 1.000000000000000000, 0.0000000000000000000, 0.0000000000000000000 ) ) ;
#107 = EDGE_CURVE ( 'NONE', #14, #14, #23, .T. ) ;
#108 = PERSON_AND_ORGANIZATION ( #122, #34 ) ;
#109 = COORDINATED_UNIVERSAL_TIME_OFFSET ( 1, 0, .AHEAD. ) ;
#110 = ORIENTED_EDGE ( 'NONE', *, *, #101, .F. ) ;
#111 = ORIENTED_EDGE ( 'NONE', *, *, #107, .F. ) ;
#112 = EDGE_LOOP ( 'NONE', ( #9 ) ) ;
#113 = DIRECTION ( 'NONE',  ( 0.0000000000000000000, 1.000000000000000000, 0.0000000000000000000 ) ) ;
#114 = AXIS2_PLACEMENT_3D ( 'NONE', #233, #84, #159 ) ;
#115 = DIRECTION ( 'NONE',  ( -1.646570607413696003E-30, 1.000000000000000000, -4.715965653590662507E-16 ) ) ;
#116 = DIRECTION ( 'NONE',  ( -3.491481338843133355E-15, -4.715965653590662507E-16, -1.000000000000000000 ) ) ;
#117 = ADVANCED_FACE ( 'NONE', ( #168, #75 ), #190, .T. ) ;
#118 = PLANE ( 'NONE',  #16 ) ;
#119 = FACE_OUTER_BOUND ( 'NONE', #230, .T. ) ;
#120 = CC_DESIGN_APPROVAL ( #156, ( #169 ) ) ;
#121 = PERSON_AND_ORGANIZATION_ROLE ( 'creator' ) ;
#122 = PERSON ( 'UNSPECIFIED', 'UNSPECIFIED', 'UNSPECIFIED', ('UNSPECIFIED'), ('UNSPECIFIED'), ('UNSPECIFIED') ) ;
#123 = DATE_AND_TIME ( #181, #31 ) ;
#124 = CLOSED_SHELL ( 'NONE', ( #65, #46, #172, #127 ) ) ;
#125 = AXIS2_PLACEMENT_3D ( 'NONE', #198, #196, #136 ) ;
#126 = COORDINATED_UNIVERSAL_TIME_OFFSET ( 1, 0, .AHEAD. ) ;
#127 = ADVANCED_FACE ( 'NONE', ( #154 ), #151, .T. ) ;
#128 = CALENDAR_DATE ( 2021, 26, 11 ) ;
#129 = CARTESIAN_POINT ( 'NONE',  ( 2.779219145719134403E-13, -7.189289034394536528E-15, 79.60000000000000853 ) ) ;
#130 = EDGE_CURVE ( 'NONE', #135, #135, #237, .T. ) ;
#131 = ORIENTED_EDGE ( 'NONE', *, *, #93, .F. ) ;
#132 = EDGE_LOOP ( 'NONE', ( #111 ) ) ;
#133 = AXIS2_PLACEMENT_3D ( 'NONE', #191, #10, #77 ) ;
#134 = DIRECTION ( 'NONE',  ( -1.646570607413696003E-30, 1.000000000000000000, -4.715965653590662507E-16 ) ) ;
#135 = VERTEX_POINT ( 'NONE', #102 ) ;
#136 = DIRECTION ( 'NONE',  ( 0.0000000000000000000, 1.000000000000000000, 0.0000000000000000000 ) ) ;
#137 = AXIS2_PLACEMENT_3D ( 'NONE', #162, #206, #106 ) ;
#138 =( NAMED_UNIT ( * ) PLANE_ANGLE_UNIT ( ) SI_UNIT ( $, .RADIAN. ) );
#139 = DATE_AND_TIME ( #20, #57 ) ;
#140 = APPROVAL_PERSON_ORGANIZATION ( #202, #240, #89 ) ;
#141 = APPROVAL_STATUS ( 'not_yet_approved' ) ;
#142 = COORDINATED_UNIVERSAL_TIME_OFFSET ( 1, 0, .AHEAD. ) ;
#143 = PERSON_AND_ORGANIZATION ( #122, #34 ) ;
#144 = APPROVAL_PERSON_ORGANIZATION ( #228, #43, #182 ) ;
#145 = EDGE_LOOP ( 'NONE', ( #6 ) ) ;
#146 = CARTESIAN_POINT ( 'NONE',  ( 1.396592535537256498E-15, 1.886386261436269342E-16, 0.4000000000000009659 ) ) ;
#147 = EDGE_CURVE ( 'NONE', #82, #82, #98, .T. ) ;
#148 = CARTESIAN_POINT ( 'NONE',  ( 0.0000000000000000000, 0.0000000000000000000, 0.0000000000000000000 ) ) ;
#149 = FACE_OUTER_BOUND ( 'NONE', #132, .T. ) ;
#150 = MANIFOLD_SOLID_BREP ( 'Corps-Déplacer/Copier1[2]', #124 ) ;
#151 = PLANE ( 'NONE',  #27 ) ;
#152 = ADVANCED_BREP_SHAPE_REPRESENTATION ( '321340', ( #234, #150, #137 ), #161 ) ;
#153 = PRODUCT_DEFINITION_FORMATION_WITH_SPECIFIED_SOURCE ( 'ANY', '', #183, .NOT_KNOWN. ) ;
#154 = FACE_OUTER_BOUND ( 'NONE', #64, .T. ) ;
#155 = FACE_BOUND ( 'NONE', #58, .T. ) ;
#156 = APPROVAL ( #19, 'UNSPECIFIED' ) ;
#157 = FACE_OUTER_BOUND ( 'NONE', #112, .T. ) ;
#158 = UNCERTAINTY_MEASURE_WITH_UNIT (LENGTH_MEASURE( 1.000000000000000082E-05 ), #238, 'distance_accuracy_value', 'NONE');
#159 = DIRECTION ( 'NONE',  ( -2.821875376391565182E-30, 1.000000000000000000, -7.942873058501894438E-16 ) ) ;
#160 = PERSON_AND_ORGANIZATION_ROLE ( 'design_owner' ) ;
#161 =( GEOMETRIC_REPRESENTATION_CONTEXT ( 3 ) GLOBAL_UNCERTAINTY_ASSIGNED_CONTEXT ( ( #158 ) ) GLOBAL_UNIT_ASSIGNED_CONTEXT ( ( #238, #138, #17 ) ) REPRESENTATION_CONTEXT ( 'NONE', 'WORKASPACE' ) );
#162 = CARTESIAN_POINT ( 'NONE',  ( 0.0000000000000000000, 0.0000000000000000000, 0.0000000000000000000 ) ) ;
#163 = CALENDAR_DATE ( 2021, 26, 11 ) ;
#164 = APPROVAL_DATE_TIME ( #139, #43 ) ;
#165 = AXIS2_PLACEMENT_3D ( 'NONE', #95, #231, #171 ) ;
#166 = EDGE_LOOP ( 'NONE', ( #131 ) ) ;
#167 = FACE_BOUND ( 'NONE', #207, .T. ) ;
#168 = FACE_BOUND ( 'NONE', #145, .T. ) ;
#169 = PRODUCT_DEFINITION ( 'UNKNOWN', '', #153, #239 ) ;
#170 = AXIS2_PLACEMENT_3D ( 'NONE', #235, #241, #66 ) ;
#171 = DIRECTION ( 'NONE',  ( 1.646570607413696003E-30, -1.000000000000000000, 4.715965653590662507E-16 ) ) ;
#172 = ADVANCED_FACE ( 'NONE', ( #157, #155 ), #243, .T. ) ;
#173 = DIRECTION ( 'NONE',  ( -1.646570607413696003E-30, 1.000000000000000000, -4.715965653590662507E-16 ) ) ;
#174 = DIRECTION ( 'NONE',  ( -3.491481338843133355E-15, 9.031770143711729009E-17, -1.000000000000000000 ) ) ;
#175 = FACE_OUTER_BOUND ( 'NONE', #38, .T. ) ;
#176 = EDGE_CURVE ( 'NONE', #194, #194, #12, .T. ) ;
#177 = DIRECTION ( 'NONE',  ( 3.153425691349006731E-31, 1.000000000000000000, 9.031770143711729009E-17 ) ) ;
#178 = CONICAL_SURFACE ( 'NONE', #214, 2.183999999999999719, 0.5235987755982938197 ) ;
#179 = CARTESIAN_POINT ( 'NONE',  ( 2.793185071074506684E-13, 1.599999999999987876, 80.00000000000000000 ) ) ;
#180 = PERSON_AND_ORGANIZATION_ROLE ( 'classification_officer' ) ;
#181 = CALENDAR_DATE ( 2021, 26, 11 ) ;
#182 = APPROVAL_ROLE ( '' ) ;
#183 = PRODUCT ( '321340', '321340', '', ( #22 ) ) ;
#184 = ORIENTED_EDGE ( 'NONE', *, *, #83, .T. ) ;
#185 = SECURITY_CLASSIFICATION ( '', '', #35 ) ;
#186 = DIRECTION ( 'NONE',  ( -3.491481338843133355E-15, -4.715965653590662507E-16, -1.000000000000000000 ) ) ;
#187 = CARTESIAN_POINT ( 'NONE',  ( 4.773958675420573357E-14, -1.234928480135128136E-15, 13.67316108011156039 ) ) ;
#188 = PLANE ( 'NONE',  #165 ) ;
#189 = CIRCLE ( 'NONE', #103, 1.999999999999991784 ) ;
#190 = CONICAL_SURFACE ( 'NONE', #133, 1.999999999999995337, 0.7853981633974516097 ) ;
#191 = CARTESIAN_POINT ( 'NONE',  ( 2.779219145719134403E-13, -7.189289034394536528E-15, 79.60000000000000853 ) ) ;
#192 = CC_DESIGN_PERSON_AND_ORGANIZATION_ASSIGNMENT ( #201, #86, ( #153 ) ) ;
#193 = CARTESIAN_POINT ( 'NONE',  ( 3.215851013219500236E-30, 4.343670051071486131E-31, 9.210563371606161536E-16 ) ) ;
#194 = VERTEX_POINT ( 'NONE', #179 ) ;
#195 = ADVANCED_FACE ( 'NONE', ( #219 ), #118, .T. ) ;
#196 = DIRECTION ( 'NONE',  ( -3.491481338843133355E-15, 9.031770143711729009E-17, -1.000000000000000000 ) ) ;
#197 = CYLINDRICAL_SURFACE ( 'NONE', #54, 1.999999999999993561 ) ;
#198 = CARTESIAN_POINT ( 'NONE',  ( 2.793185071074506684E-13, -7.225416114969383207E-15, 80.00000000000000000 ) ) ;
#199 = CARTESIAN_POINT ( 'NONE',  ( 4.773958675420573357E-14, 2.183999999999998387, 13.67316108011156039 ) ) ;
#200 = LOCAL_TIME ( 11, 2, 48.00000000000000000, #142 ) ;
#201 = PERSON_AND_ORGANIZATION ( #122, #34 ) ;
#202 = PERSON_AND_ORGANIZATION ( #122, #34 ) ;
#203 = DATE_AND_TIME ( #128, #74 ) ;
#204 = CC_DESIGN_PERSON_AND_ORGANIZATION_ASSIGNMENT ( #143, #160, ( #183 ) ) ;
#205 = DATE_AND_TIME ( #163, #51 ) ;
#206 = DIRECTION ( 'NONE',  ( 0.0000000000000000000, 0.0000000000000000000, 1.000000000000000000 ) ) ;
#207 = EDGE_LOOP ( 'NONE', ( #184 ) ) ;
#208 = APPLICATION_CONTEXT ( 'configuration controlled 3d designs of mechanical parts and assemblies' ) ;
#209 = DIRECTION ( 'NONE',  ( -3.491481338843133355E-15, 9.031770143711729009E-17, -1.000000000000000000 ) ) ;
#210 = DIRECTION ( 'NONE',  ( -3.491481338843133355E-15, 9.031770143711729009E-17, -1.000000000000000000 ) ) ;
#211 = DIRECTION ( 'NONE',  ( -3.491481338843133355E-15, 9.031770143711729009E-17, -1.000000000000000000 ) ) ;
#212 = FACE_OUTER_BOUND ( 'NONE', #24, .T. ) ;
#213 = CC_DESIGN_DATE_AND_TIME_ASSIGNMENT ( #203, #105, ( #169 ) ) ;
#214 = AXIS2_PLACEMENT_3D ( 'NONE', #92, #211, #113 ) ;
#215 = EDGE_LOOP ( 'NONE', ( #72 ) ) ;
#216 = CARTESIAN_POINT ( 'NONE',  ( 4.773958675420573357E-14, 2.183999999999998387, 13.67316108011156039 ) ) ;
#217 = CC_DESIGN_APPROVAL ( #240, ( #153 ) ) ;
#218 = ADVANCED_FACE ( 'NONE', ( #175, #119 ), #197, .T. ) ;
#219 = FACE_OUTER_BOUND ( 'NONE', #215, .T. ) ;
#220 = CARTESIAN_POINT ( 'NONE',  ( 0.0000000000000000000, 0.0000000000000000000, 0.0000000000000000000 ) ) ;
#221 = AXIS2_PLACEMENT_3D ( 'NONE', #146, #116, #42 ) ;
#222 = CALENDAR_DATE ( 2021, 26, 11 ) ;
#223 = APPROVAL_ROLE ( '' ) ;
#224 = APPROVAL_DATE_TIME ( #52, #240 ) ;
#225 = EDGE_LOOP ( 'NONE', ( #41 ) ) ;
#226 = DATE_TIME_ROLE ( 'classification_date' ) ;
#227 = AXIS2_PLACEMENT_3D ( 'NONE', #187, #209, #25 ) ;
#228 = PERSON_AND_ORGANIZATION ( #122, #34 ) ;
#229 = DIRECTION ( 'NONE',  ( -3.491481338843133355E-15, 9.031770143711729009E-17, -1.000000000000000000 ) ) ;
#230 = EDGE_LOOP ( 'NONE', ( #36 ) ) ;
#231 = DIRECTION ( 'NONE',  ( 3.491481338843133355E-15, 4.715965653590662507E-16, 1.000000000000000000 ) ) ;
#232 = CARTESIAN_POINT ( 'NONE',  ( -1.607925506609750118E-30, 1.953059892324148228, -4.605281685803080768E-16 ) ) ;
#233 = CARTESIAN_POINT ( 'NONE',  ( 4.773958675420573988E-14, 6.448215802981873370E-15, 13.67316108011156217 ) ) ;
#234 = MANIFOLD_SOLID_BREP ( 'Corps-Déplacer/Copier1[1]', #94 ) ;
#235 = CARTESIAN_POINT ( 'NONE',  ( 3.215851013219500236E-30, 4.343670051071486131E-31, 9.210563371606161536E-16 ) ) ;
#236 = AXIS2_PLACEMENT_3D ( 'NONE', #8, #229, #45 ) ;
#237 = CIRCLE ( 'NONE', #30, 1.953059892324148228 ) ;
#238 =( LENGTH_UNIT ( ) NAMED_UNIT ( * ) SI_UNIT ( .MILLI., .METRE. ) );
#239 = DESIGN_CONTEXT ( 'detailed design', #208, 'design' ) ;
#240 = APPROVAL ( #141, 'UNSPECIFIED' ) ;
#241 = DIRECTION ( 'NONE',  ( 3.491481338843133355E-15, 4.715965653590662507E-16, 1.000000000000000000 ) ) ;
#242 = VERTEX_POINT ( 'NONE', #99 ) ;
#243 = CONICAL_SURFACE ( 'NONE', #170, 1.953059892324148228, 0.5235987755982979275 ) ;
ENDSEC;
END-ISO-10303-21;
