ISO-10303-21;
HEADER;
FILE_DESCRIPTION (( 'STEP AP203' ),
    '1' );
FILE_NAME ('321339.step',
    '2021-11-26T10:02:47',
    ( '' ),
    ( '' ),
    'SwSTEP 2.0',
    'SolidWorks 2019',
    '' );
FILE_SCHEMA (( 'CONFIG_CONTROL_DESIGN' ));
ENDSEC;

DATA;
#1 = CC_DESIGN_PERSON_AND_ORGANIZATION_ASSIGNMENT ( #13, #214, ( #123 ) ) ;
#2 = CC_DESIGN_PERSON_AND_ORGANIZATION_ASSIGNMENT ( #55, #192, ( #132 ) ) ;
#3 = DIRECTION ( 'NONE',  ( 1.644987069920314241E-30, -1.000000000000000000, 4.711430221950903191E-16 ) ) ;
#4 = FACE_OUTER_BOUND ( 'NONE', #196, .T. ) ;
#5 = PERSON_AND_ORGANIZATION_ROLE ( 'classification_officer' ) ;
#6 = DIRECTION ( 'NONE',  ( -3.491481338843133355E-15, 9.031770143711729009E-17, -1.000000000000000000 ) ) ;
#7 = AXIS2_PLACEMENT_3D ( 'NONE', #220, #183, #80 ) ;
#8 = CIRCLE ( 'NONE', #22, 1.599999999999994982 ) ;
#9 = ADVANCED_FACE ( 'NONE', ( #34, #235 ), #121, .T. ) ;
#10 = CARTESIAN_POINT ( 'NONE',  ( 2.793185071074506684E-13, 1.599999999999987876, 80.00000000000000000 ) ) ;
#11 = APPROVAL_STATUS ( 'not_yet_approved' ) ;
#12 = APPROVAL_PERSON_ORGANIZATION ( #86, #54, #26 ) ;
#13 = PERSON_AND_ORGANIZATION ( #188, #238 ) ;
#14 = MANIFOLD_SOLID_BREP ( 'Corps-Déplacer/Copier1[1]', #184 ) ;
#15 = EDGE_LOOP ( 'NONE', ( #200 ) ) ;
#16 = APPROVAL_STATUS ( 'not_yet_approved' ) ;
#17 = EDGE_LOOP ( 'NONE', ( #31 ) ) ;
#18 = DATE_AND_TIME ( #74, #77 ) ;
#19 = ADVANCED_FACE ( 'NONE', ( #205 ), #227, .T. ) ;
#20 = CIRCLE ( 'NONE', #35, 2.178999999999991832 ) ;
#21 = CYLINDRICAL_SURFACE ( 'NONE', #81, 2.178999999999995385 ) ;
#22 = AXIS2_PLACEMENT_3D ( 'NONE', #139, #63, #224 ) ;
#23 = FACE_OUTER_BOUND ( 'NONE', #115, .T. ) ;
#24 = DIRECTION ( 'NONE',  ( -1.679333131865879158E-30, 1.000000000000000000, -4.726902541813813374E-16 ) ) ;
#25 = CARTESIAN_POINT ( 'NONE',  ( 4.776982386956852755E-14, 2.178999999999998050, 13.68182133414940971 ) ) ;
#26 = APPROVAL_ROLE ( '' ) ;
#27 = CONICAL_SURFACE ( 'NONE', #73, 2.178999999999999382, 0.5235987755982942637 ) ;
#28 = APPROVAL ( #16, 'UNSPECIFIED' ) ;
#29 = FACE_BOUND ( 'NONE', #17, .T. ) ;
#30 = PERSON_AND_ORGANIZATION_ROLE ( 'design_supplier' ) ;
#31 = ORIENTED_EDGE ( 'NONE', *, *, #61, .T. ) ;
#32 = CONICAL_SURFACE ( 'NONE', #175, 1.948059892324148779, 0.5235987755982979275 ) ;
#33 = ORIENTED_EDGE ( 'NONE', *, *, #114, .T. ) ;
#34 = FACE_BOUND ( 'NONE', #134, .T. ) ;
#35 = AXIS2_PLACEMENT_3D ( 'NONE', #124, #119, #191 ) ;
#36 = EDGE_LOOP ( 'NONE', ( #181 ) ) ;
#37 = ADVANCED_FACE ( 'NONE', ( #167, #242 ), #21, .T. ) ;
#38 = FACE_BOUND ( 'NONE', #221, .T. ) ;
#39 = DIRECTION ( 'NONE',  ( -3.491481338843133355E-15, -4.711430221950903191E-16, -1.000000000000000000 ) ) ;
#40 = CIRCLE ( 'NONE', #172, 1.999999999999995337 ) ;
#41 = CARTESIAN_POINT ( 'NONE',  ( 2.793185071074506684E-13, -7.225416114969383207E-15, 80.00000000000000000 ) ) ;
#42 = DIRECTION ( 'NONE',  ( 3.491481338843133355E-15, 4.711430221950903191E-16, 1.000000000000000000 ) ) ;
#43 = DIRECTION ( 'NONE',  ( -1.644987069920313890E-30, 1.000000000000000000, -4.711430221950903191E-16 ) ) ;
#44 = CC_DESIGN_APPROVAL ( #54, ( #180 ) ) ;
#45 = ADVANCED_FACE ( 'NONE', ( #187 ), #96, .T. ) ;
#46 =( NAMED_UNIT ( * ) PLANE_ANGLE_UNIT ( ) SI_UNIT ( $, .RADIAN. ) );
#47 = ADVANCED_BREP_SHAPE_REPRESENTATION ( '321339', ( #14, #95, #216 ), #207 ) ;
#48 = LOCAL_TIME ( 11, 2, 47.00000000000000000, #89 ) ;
#49 = COORDINATED_UNIVERSAL_TIME_OFFSET ( 1, 0, .AHEAD. ) ;
#50 = CALENDAR_DATE ( 2021, 26, 11 ) ;
#51 = CLOSED_SHELL ( 'NONE', ( #19, #37, #87, #45 ) ) ;
#52 = AXIS2_PLACEMENT_3D ( 'NONE', #25, #102, #104 ) ;
#53 = ORIENTED_EDGE ( 'NONE', *, *, #154, .F. ) ;
#54 = APPROVAL ( #11, 'UNSPECIFIED' ) ;
#55 = PERSON_AND_ORGANIZATION ( #188, #238 ) ;
#56 = EDGE_LOOP ( 'NONE', ( #53 ) ) ;
#57 = CARTESIAN_POINT ( 'NONE',  ( 0.0000000000000000000, 0.0000000000000000000, 0.0000000000000000000 ) ) ;
#58 = CARTESIAN_POINT ( 'NONE',  ( 3.204533334303584236E-30, 4.324220505067785604E-31, 9.178148250866417148E-16 ) ) ;
#59 = DIRECTION ( 'NONE',  ( -3.491481338843133355E-15, 9.031770143711729009E-17, -1.000000000000000000 ) ) ;
#60 = SECURITY_CLASSIFICATION ( '', '', #162 ) ;
#61 = EDGE_CURVE ( 'NONE', #211, #211, #69, .T. ) ;
#62 = DIRECTION ( 'NONE',  ( -3.491481338843133355E-15, 9.031770143711729009E-17, -1.000000000000000000 ) ) ;
#63 = DIRECTION ( 'NONE',  ( -3.491481338843133355E-15, 9.031770143711729009E-17, -1.000000000000000000 ) ) ;
#64 = VERTEX_POINT ( 'NONE', #66 ) ;
#65 = CARTESIAN_POINT ( 'NONE',  ( 2.779219145719134403E-13, 1.999999999999988010, 79.60000000000000853 ) ) ;
#66 = CARTESIAN_POINT ( 'NONE',  ( 1.396592535537252948E-15, 2.178999999999998494, 0.3999999999999999112 ) ) ;
#67 = CC_DESIGN_PERSON_AND_ORGANIZATION_ASSIGNMENT ( #231, #30, ( #180 ) ) ;
#68 = APPLICATION_PROTOCOL_DEFINITION ( 'international standard', 'config_control_design', 1994, #179 ) ;
#69 = CIRCLE ( 'NONE', #202, 1.999999999999991784 ) ;
#70 = PERSON_AND_ORGANIZATION ( #188, #238 ) ;
#71 = ORIENTED_EDGE ( 'NONE', *, *, #152, .F. ) ;
#72 = AXIS2_PLACEMENT_3D ( 'NONE', #41, #169, #229 ) ;
#73 = AXIS2_PLACEMENT_3D ( 'NONE', #83, #112, #85 ) ;
#74 = CALENDAR_DATE ( 2021, 26, 11 ) ;
#75 = EDGE_CURVE ( 'NONE', #130, #130, #40, .T. ) ;
#76 = FACE_OUTER_BOUND ( 'NONE', #36, .T. ) ;
#77 = LOCAL_TIME ( 11, 2, 47.00000000000000000, #158 ) ;
#78 = DIRECTION ( 'NONE',  ( 0.0000000000000000000, 1.000000000000000000, 0.0000000000000000000 ) ) ;
#79 = CARTESIAN_POINT ( 'NONE',  ( 2.779219145719134403E-13, -7.189289034394536528E-15, 79.60000000000000853 ) ) ;
#80 = DIRECTION ( 'NONE',  ( 0.0000000000000000000, 1.000000000000000000, 0.0000000000000000000 ) ) ;
#81 = AXIS2_PLACEMENT_3D ( 'NONE', #136, #39, #122 ) ;
#82 = FACE_OUTER_BOUND ( 'NONE', #131, .T. ) ;
#83 = CARTESIAN_POINT ( 'NONE',  ( 4.776982386956851493E-14, -1.235710654373688023E-15, 13.68182133414940616 ) ) ;
#84 = VERTEX_POINT ( 'NONE', #234 ) ;
#85 = DIRECTION ( 'NONE',  ( 0.0000000000000000000, 1.000000000000000000, 0.0000000000000000000 ) ) ;
#86 = PERSON_AND_ORGANIZATION ( #188, #238 ) ;
#87 = ADVANCED_FACE ( 'NONE', ( #82, #38 ), #32, .T. ) ;
#88 = CARTESIAN_POINT ( 'NONE',  ( 4.885231259955590439E-14, 1.999999999999990452, 13.99185842870425134 ) ) ;
#89 = COORDINATED_UNIVERSAL_TIME_OFFSET ( 1, 0, .AHEAD. ) ;
#90 = CIRCLE ( 'NONE', #197, 1.948059892324148779 ) ;
#91 = DATE_AND_TIME ( #212, #48 ) ;
#92 = ORIENTED_EDGE ( 'NONE', *, *, #114, .F. ) ;
#93 = ADVANCED_FACE ( 'NONE', ( #204 ), #155, .T. ) ;
#94 = CALENDAR_DATE ( 2021, 26, 11 ) ;
#95 = MANIFOLD_SOLID_BREP ( 'Corps-Déplacer/Copier1[2]', #51 ) ;
#96 = PLANE ( 'NONE',  #147 ) ;
#97 = CARTESIAN_POINT ( 'NONE',  ( -1.602266667151792118E-30, 1.948059892324148779, -4.589074125433208574E-16 ) ) ;
#98 = CYLINDRICAL_SURFACE ( 'NONE', #173, 1.999999999999993561 ) ;
#99 = CARTESIAN_POINT ( 'NONE',  ( 4.885231259955590439E-14, -1.263712492114123682E-15, 13.99185842870425134 ) ) ;
#100 = AXIS2_PLACEMENT_3D ( 'NONE', #142, #190, #24 ) ;
#101 = DIRECTION ( 'NONE',  ( 3.491481338843133355E-15, 4.711430221950903191E-16, 1.000000000000000000 ) ) ;
#102 = DIRECTION ( 'NONE',  ( -3.491481338843133355E-15, 9.031770143711729009E-17, -1.000000000000000000 ) ) ;
#103 = CALENDAR_DATE ( 2021, 26, 11 ) ;
#104 = DIRECTION ( 'NONE',  ( 3.153425691349006731E-31, 1.000000000000000000, 9.031770143711729009E-17 ) ) ;
#105 = PRODUCT_RELATED_PRODUCT_CATEGORY ( 'detail', '', ( #132 ) ) ;
#106 = APPROVAL_DATE_TIME ( #91, #54 ) ;
#107 =( LENGTH_UNIT ( ) NAMED_UNIT ( * ) SI_UNIT ( .MILLI., .METRE. ) );
#108 = CC_DESIGN_SECURITY_CLASSIFICATION ( #60, ( #180 ) ) ;
#109 = PERSON_AND_ORGANIZATION ( #188, #238 ) ;
#110 = DIRECTION ( 'NONE',  ( 1.000000000000000000, 0.0000000000000000000, 0.0000000000000000000 ) ) ;
#111 = DATE_TIME_ROLE ( 'creation_date' ) ;
#112 = DIRECTION ( 'NONE',  ( -3.491481338843133355E-15, 9.031770143711729009E-17, -1.000000000000000000 ) ) ;
#113 = APPROVAL_DATE_TIME ( #144, #217 ) ;
#114 = EDGE_CURVE ( 'NONE', #161, #161, #90, .T. ) ;
#115 = EDGE_LOOP ( 'NONE', ( #240 ) ) ;
#116 = ORIENTED_EDGE ( 'NONE', *, *, #177, .T. ) ;
#117 = PERSON_AND_ORGANIZATION ( #188, #238 ) ;
#118 = EDGE_LOOP ( 'NONE', ( #166 ) ) ;
#119 = DIRECTION ( 'NONE',  ( -3.491481338843133355E-15, -4.711430221950903191E-16, -1.000000000000000000 ) ) ;
#120 = UNCERTAINTY_MEASURE_WITH_UNIT (LENGTH_MEASURE( 1.000000000000000082E-05 ), #107, 'distance_accuracy_value', 'NONE');
#121 = CONICAL_SURFACE ( 'NONE', #7, 1.999999999999995337, 0.7853981633974516097 ) ;
#122 = DIRECTION ( 'NONE',  ( -1.644987069920313890E-30, 1.000000000000000000, -4.711430221950902205E-16 ) ) ;
#123 = PRODUCT_DEFINITION ( 'UNKNOWN', '', #180, #135 ) ;
#124 = CARTESIAN_POINT ( 'NONE',  ( 4.776982386956852124E-14, 6.446094652504414604E-15, 13.68182133414940793 ) ) ;
#125 = CC_DESIGN_APPROVAL ( #217, ( #123 ) ) ;
#126 = CARTESIAN_POINT ( 'NONE',  ( 6.842277657836020854E-46, 1.948059892324148779, 0.0000000000000000000 ) ) ;
#127 = CC_DESIGN_PERSON_AND_ORGANIZATION_ASSIGNMENT ( #70, #5, ( #60 ) ) ;
#128 = VERTEX_POINT ( 'NONE', #171 ) ;
#129 =( NAMED_UNIT ( * ) SI_UNIT ( $, .STERADIAN. ) SOLID_ANGLE_UNIT ( ) );
#130 = VERTEX_POINT ( 'NONE', #65 ) ;
#131 = EDGE_LOOP ( 'NONE', ( #116 ) ) ;
#132 = PRODUCT ( '321339', '321339', '', ( #210 ) ) ;
#133 = APPROVAL_ROLE ( '' ) ;
#134 = EDGE_LOOP ( 'NONE', ( #149 ) ) ;
#135 = DESIGN_CONTEXT ( 'detailed design', #159, 'design' ) ;
#136 = CARTESIAN_POINT ( 'NONE',  ( 0.0000000000000000000, 0.0000000000000000000, 0.0000000000000000000 ) ) ;
#137 = PRODUCT_DEFINITION_SHAPE ( 'NONE', 'NONE',  #123 ) ;
#138 = CARTESIAN_POINT ( 'NONE',  ( 4.776982386956852755E-14, 6.446094652504416182E-15, 13.68182133414940971 ) ) ;
#139 = CARTESIAN_POINT ( 'NONE',  ( 2.793185071074506684E-13, -7.225416114969383207E-15, 80.00000000000000000 ) ) ;
#140 = APPROVAL_PERSON_ORGANIZATION ( #109, #217, #195 ) ;
#141 = DIRECTION ( 'NONE',  ( -3.491481338843133355E-15, 9.031770143711729009E-17, -1.000000000000000000 ) ) ;
#142 = CARTESIAN_POINT ( 'NONE',  ( 1.396592535537256498E-15, 1.884572088780365812E-16, 0.4000000000000009659 ) ) ;
#143 = DATE_AND_TIME ( #50, #164 ) ;
#144 = DATE_AND_TIME ( #103, #193 ) ;
#145 = PERSON_AND_ORGANIZATION_ROLE ( 'creator' ) ;
#146 = ORIENTED_EDGE ( 'NONE', *, *, #152, .T. ) ;
#147 = AXIS2_PLACEMENT_3D ( 'NONE', #97, #168, #43 ) ;
#148 = AXIS2_PLACEMENT_3D ( 'NONE', #138, #101, #186 ) ;
#149 = ORIENTED_EDGE ( 'NONE', *, *, #160, .T. ) ;
#150 = APPROVAL_DATE_TIME ( #237, #28 ) ;
#151 = CARTESIAN_POINT ( 'NONE',  ( 4.776982386956851493E-14, -1.235710654373688023E-15, 13.68182133414940616 ) ) ;
#152 = EDGE_CURVE ( 'NONE', #128, #128, #20, .T. ) ;
#153 = DIRECTION ( 'NONE',  ( 0.0000000000000000000, 1.000000000000000000, 0.0000000000000000000 ) ) ;
#154 = EDGE_CURVE ( 'NONE', #84, #84, #170, .T. ) ;
#155 = PLANE ( 'NONE',  #72 ) ;
#156 = PLANE ( 'NONE',  #52 ) ;
#157 = FACE_OUTER_BOUND ( 'NONE', #56, .T. ) ;
#158 = COORDINATED_UNIVERSAL_TIME_OFFSET ( 1, 0, .AHEAD. ) ;
#159 = APPLICATION_CONTEXT ( 'configuration controlled 3d designs of mechanical parts and assemblies' ) ;
#160 = EDGE_CURVE ( 'NONE', #215, #215, #8, .T. ) ;
#161 = VERTEX_POINT ( 'NONE', #126 ) ;
#162 = SECURITY_CLASSIFICATION_LEVEL ( 'unclassified' ) ;
#163 = EDGE_LOOP ( 'NONE', ( #185 ) ) ;
#164 = LOCAL_TIME ( 11, 2, 47.00000000000000000, #49 ) ;
#165 = LOCAL_TIME ( 11, 2, 47.00000000000000000, #199 ) ;
#166 = ORIENTED_EDGE ( 'NONE', *, *, #75, .F. ) ;
#167 = FACE_OUTER_BOUND ( 'NONE', #236, .T. ) ;
#168 = DIRECTION ( 'NONE',  ( -3.491481338843133355E-15, -4.711430221950903191E-16, -1.000000000000000000 ) ) ;
#169 = DIRECTION ( 'NONE',  ( 3.491481338843133355E-15, -9.031770143711729009E-17, 1.000000000000000000 ) ) ;
#170 = CIRCLE ( 'NONE', #203, 2.178999999999999382 ) ;
#171 = CARTESIAN_POINT ( 'NONE',  ( 4.776982386956851493E-14, 2.178999999999998050, 13.68182133414940616 ) ) ;
#172 = AXIS2_PLACEMENT_3D ( 'NONE', #79, #62, #153 ) ;
#173 = AXIS2_PLACEMENT_3D ( 'NONE', #57, #6, #232 ) ;
#174 = APPROVAL_STATUS ( 'not_yet_approved' ) ;
#175 = AXIS2_PLACEMENT_3D ( 'NONE', #225, #42, #3 ) ;
#176 = CARTESIAN_POINT ( 'NONE',  ( 0.0000000000000000000, 0.0000000000000000000, 0.0000000000000000000 ) ) ;
#177 = EDGE_CURVE ( 'NONE', #64, #64, #223, .T. ) ;
#178 = COORDINATED_UNIVERSAL_TIME_OFFSET ( 1, 0, .AHEAD. ) ;
#179 = APPLICATION_CONTEXT ( 'configuration controlled 3d designs of mechanical parts and assemblies' ) ;
#180 = PRODUCT_DEFINITION_FORMATION_WITH_SPECIFIED_SOURCE ( 'ANY', '', #132, .NOT_KNOWN. ) ;
#181 = ORIENTED_EDGE ( 'NONE', *, *, #61, .F. ) ;
#182 = ADVANCED_FACE ( 'NONE', ( #23, #76 ), #98, .T. ) ;
#183 = DIRECTION ( 'NONE',  ( -3.491481338843133355E-15, 9.031770143711729009E-17, -1.000000000000000000 ) ) ;
#184 = CLOSED_SHELL ( 'NONE', ( #93, #9, #182, #243, #219 ) ) ;
#185 = ORIENTED_EDGE ( 'NONE', *, *, #177, .F. ) ;
#186 = DIRECTION ( 'NONE',  ( 1.644987069920313890E-30, -1.000000000000000000, 4.711430221950903191E-16 ) ) ;
#187 = FACE_OUTER_BOUND ( 'NONE', #198, .T. ) ;
#188 = PERSON ( 'UNSPECIFIED', 'UNSPECIFIED', 'UNSPECIFIED', ('UNSPECIFIED'), ('UNSPECIFIED'), ('UNSPECIFIED') ) ;
#189 = CC_DESIGN_DATE_AND_TIME_ASSIGNMENT ( #18, #222, ( #60 ) ) ;
#190 = DIRECTION ( 'NONE',  ( -3.491481338843133355E-15, -4.711430221950903191E-16, -1.000000000000000000 ) ) ;
#191 = DIRECTION ( 'NONE',  ( -2.828350537879384072E-30, 1.000000000000000000, -7.961099017791710023E-16 ) ) ;
#192 = PERSON_AND_ORGANIZATION_ROLE ( 'design_owner' ) ;
#193 = LOCAL_TIME ( 11, 2, 47.00000000000000000, #178 ) ;
#194 = DIRECTION ( 'NONE',  ( 0.0000000000000000000, 0.0000000000000000000, 1.000000000000000000 ) ) ;
#195 = APPROVAL_ROLE ( '' ) ;
#196 = EDGE_LOOP ( 'NONE', ( #241 ) ) ;
#197 = AXIS2_PLACEMENT_3D ( 'NONE', #58, #226, #206 ) ;
#198 = EDGE_LOOP ( 'NONE', ( #33 ) ) ;
#199 = COORDINATED_UNIVERSAL_TIME_OFFSET ( 1, 0, .AHEAD. ) ;
#200 = ORIENTED_EDGE ( 'NONE', *, *, #160, .F. ) ;
#201 = SHAPE_DEFINITION_REPRESENTATION ( #137, #47 ) ;
#202 = AXIS2_PLACEMENT_3D ( 'NONE', #99, #141, #78 ) ;
#203 = AXIS2_PLACEMENT_3D ( 'NONE', #151, #59, #209 ) ;
#204 = FACE_OUTER_BOUND ( 'NONE', #15, .T. ) ;
#205 = FACE_OUTER_BOUND ( 'NONE', #230, .T. ) ;
#206 = DIRECTION ( 'NONE',  ( -1.644987069920313890E-30, 1.000000000000000000, -4.711430221950903191E-16 ) ) ;
#207 =( GEOMETRIC_REPRESENTATION_CONTEXT ( 3 ) GLOBAL_UNCERTAINTY_ASSIGNED_CONTEXT ( ( #120 ) ) GLOBAL_UNIT_ASSIGNED_CONTEXT ( ( #107, #46, #129 ) ) REPRESENTATION_CONTEXT ( 'NONE', 'WORKASPACE' ) );
#208 = APPROVAL_PERSON_ORGANIZATION ( #117, #28, #133 ) ;
#209 = DIRECTION ( 'NONE',  ( 0.0000000000000000000, 1.000000000000000000, 0.0000000000000000000 ) ) ;
#210 = MECHANICAL_CONTEXT ( 'NONE', #179, 'mechanical' ) ;
#211 = VERTEX_POINT ( 'NONE', #88 ) ;
#212 = CALENDAR_DATE ( 2021, 26, 11 ) ;
#213 = CC_DESIGN_PERSON_AND_ORGANIZATION_ASSIGNMENT ( #218, #145, ( #180 ) ) ;
#214 = PERSON_AND_ORGANIZATION_ROLE ( 'creator' ) ;
#215 = VERTEX_POINT ( 'NONE', #10 ) ;
#216 = AXIS2_PLACEMENT_3D ( 'NONE', #176, #194, #110 ) ;
#217 = APPROVAL ( #174, 'UNSPECIFIED' ) ;
#218 = PERSON_AND_ORGANIZATION ( #188, #238 ) ;
#219 = ADVANCED_FACE ( 'NONE', ( #4 ), #156, .T. ) ;
#220 = CARTESIAN_POINT ( 'NONE',  ( 2.779219145719134403E-13, -7.189289034394536528E-15, 79.60000000000000853 ) ) ;
#221 = EDGE_LOOP ( 'NONE', ( #92 ) ) ;
#222 = DATE_TIME_ROLE ( 'classification_date' ) ;
#223 = CIRCLE ( 'NONE', #100, 2.178999999999998494 ) ;
#224 = DIRECTION ( 'NONE',  ( 0.0000000000000000000, 1.000000000000000000, 0.0000000000000000000 ) ) ;
#225 = CARTESIAN_POINT ( 'NONE',  ( 3.204533334303584236E-30, 4.324220505067785604E-31, 9.178148250866417148E-16 ) ) ;
#226 = DIRECTION ( 'NONE',  ( -3.491481338843133355E-15, -4.711430221950903191E-16, -1.000000000000000000 ) ) ;
#227 = PLANE ( 'NONE',  #148 ) ;
#228 = CC_DESIGN_APPROVAL ( #28, ( #60 ) ) ;
#229 = DIRECTION ( 'NONE',  ( -3.153425691349006731E-31, -1.000000000000000000, -9.031770143711729009E-17 ) ) ;
#230 = EDGE_LOOP ( 'NONE', ( #71 ) ) ;
#231 = PERSON_AND_ORGANIZATION ( #188, #238 ) ;
#232 = DIRECTION ( 'NONE',  ( 3.153425691349006731E-31, 1.000000000000000000, 9.031770143711729009E-17 ) ) ;
#233 = APPLICATION_PROTOCOL_DEFINITION ( 'international standard', 'config_control_design', 1994, #159 ) ;
#234 = CARTESIAN_POINT ( 'NONE',  ( 4.776982386956851493E-14, 2.178999999999998050, 13.68182133414940616 ) ) ;
#235 = FACE_OUTER_BOUND ( 'NONE', #118, .T. ) ;
#236 = EDGE_LOOP ( 'NONE', ( #146 ) ) ;
#237 = DATE_AND_TIME ( #94, #165 ) ;
#238 = ORGANIZATION ( 'UNSPECIFIED', 'UNSPECIFIED', '' ) ;
#239 = CC_DESIGN_DATE_AND_TIME_ASSIGNMENT ( #143, #111, ( #123 ) ) ;
#240 = ORIENTED_EDGE ( 'NONE', *, *, #75, .T. ) ;
#241 = ORIENTED_EDGE ( 'NONE', *, *, #154, .T. ) ;
#242 = FACE_OUTER_BOUND ( 'NONE', #163, .T. ) ;
#243 = ADVANCED_FACE ( 'NONE', ( #29, #157 ), #27, .T. ) ;
ENDSEC;
END-ISO-10303-21;
