ISO-10303-21;
HEADER;
FILE_DESCRIPTION (( 'STEP AP203' ),
    '1' );
FILE_NAME ('321338.step',
    '2021-11-26T10:02:47',
    ( '' ),
    ( '' ),
    'SwSTEP 2.0',
    'SolidWorks 2019',
    '' );
FILE_SCHEMA (( 'CONFIG_CONTROL_DESIGN' ));
ENDSEC;

DATA;
#1 = DIRECTION ( 'NONE',  ( -3.491481338843133355E-15, 9.031770143711729009E-17, -1.000000000000000000 ) ) ;
#2 = ADVANCED_FACE ( 'NONE', ( #146, #222 ), #108, .T. ) ;
#3 = DIRECTION ( 'NONE',  ( 0.0000000000000000000, 1.000000000000000000, 0.0000000000000000000 ) ) ;
#4 = FACE_BOUND ( 'NONE', #15, .T. ) ;
#5 = AXIS2_PLACEMENT_3D ( 'NONE', #38, #39, #82 ) ;
#6 = CARTESIAN_POINT ( 'NONE',  ( 4.885231259955590439E-14, -1.263712492114123682E-15, 13.99185842870425134 ) ) ;
#7 = DIRECTION ( 'NONE',  ( -3.153425691349006731E-31, -1.000000000000000000, -9.031770143711729009E-17 ) ) ;
#8 =( NAMED_UNIT ( * ) PLANE_ANGLE_UNIT ( ) SI_UNIT ( $, .RADIAN. ) );
#9 = LOCAL_TIME ( 11, 2, 47.00000000000000000, #158 ) ;
#10 = PERSON_AND_ORGANIZATION ( #118, #143 ) ;
#11 = APPLICATION_CONTEXT ( 'configuration controlled 3d designs of mechanical parts and assemblies' ) ;
#12 = CALENDAR_DATE ( 2021, 26, 11 ) ;
#13 = ADVANCED_FACE ( 'NONE', ( #35 ), #110, .T. ) ;
#14 = AXIS2_PLACEMENT_3D ( 'NONE', #75, #185, #69 ) ;
#15 = EDGE_LOOP ( 'NONE', ( #125 ) ) ;
#16 = APPROVAL ( #117, 'UNSPECIFIED' ) ;
#17 = ORIENTED_EDGE ( 'NONE', *, *, #120, .T. ) ;
#18 = EDGE_LOOP ( 'NONE', ( #17 ) ) ;
#19 = AXIS2_PLACEMENT_3D ( 'NONE', #53, #124, #72 ) ;
#20 = ORIENTED_EDGE ( 'NONE', *, *, #105, .F. ) ;
#21 = FACE_OUTER_BOUND ( 'NONE', #109, .T. ) ;
#22 = CONICAL_SURFACE ( 'NONE', #121, 1.943059892324148663, 0.5235987755982979275 ) ;
#23 = DIRECTION ( 'NONE',  ( 3.491481338843133355E-15, -9.031770143711729009E-17, 1.000000000000000000 ) ) ;
#24 = FACE_OUTER_BOUND ( 'NONE', #219, .T. ) ;
#25 = DIRECTION ( 'NONE',  ( -2.834855483918665366E-30, 1.000000000000000000, -7.979408813140817787E-16 ) ) ;
#26 = EDGE_CURVE ( 'NONE', #226, #226, #76, .T. ) ;
#27 = APPROVAL_PERSON_ORGANIZATION ( #68, #16, #31 ) ;
#28 = EDGE_CURVE ( 'NONE', #192, #192, #214, .T. ) ;
#29 = PERSON_AND_ORGANIZATION ( #118, #143 ) ;
#30 =( LENGTH_UNIT ( ) NAMED_UNIT ( * ) SI_UNIT ( .MILLI., .METRE. ) );
#31 = APPROVAL_ROLE ( '' ) ;
#32 = CLOSED_SHELL ( 'NONE', ( #194, #173, #60, #90, #241 ) ) ;
#33 = DIRECTION ( 'NONE',  ( -3.491481338843133355E-15, -4.706900528310934543E-16, -1.000000000000000000 ) ) ;
#34 = ADVANCED_BREP_SHAPE_REPRESENTATION ( '321338', ( #73, #78, #210 ), #70 ) ;
#35 = FACE_OUTER_BOUND ( 'NONE', #130, .T. ) ;
#36 = APPROVAL_PERSON_ORGANIZATION ( #10, #138, #178 ) ;
#37 = ORIENTED_EDGE ( 'NONE', *, *, #204, .F. ) ;
#38 = CARTESIAN_POINT ( 'NONE',  ( 4.780006098493129628E-14, -1.236492828612247517E-15, 13.69048158818725192 ) ) ;
#39 = DIRECTION ( 'NONE',  ( -3.491481338843133355E-15, 9.031770143711729009E-17, -1.000000000000000000 ) ) ;
#40 = CC_DESIGN_SECURITY_CLASSIFICATION ( #89, ( #104 ) ) ;
#41 = FACE_OUTER_BOUND ( 'NONE', #163, .T. ) ;
#42 = CARTESIAN_POINT ( 'NONE',  ( 0.0000000000000000000, 1.943059892324148663, 0.0000000000000000000 ) ) ;
#43 = CYLINDRICAL_SURFACE ( 'NONE', #134, 1.999999999999993561 ) ;
#44 = PERSON_AND_ORGANIZATION ( #118, #143 ) ;
#45 = EDGE_CURVE ( 'NONE', #228, #228, #107, .T. ) ;
#46 = COORDINATED_UNIVERSAL_TIME_OFFSET ( 1, 0, .AHEAD. ) ;
#47 = DATE_AND_TIME ( #12, #238 ) ;
#48 = PRODUCT_RELATED_PRODUCT_CATEGORY ( 'detail', '', ( #136 ) ) ;
#49 = PERSON_AND_ORGANIZATION_ROLE ( 'creator' ) ;
#50 = CONICAL_SURFACE ( 'NONE', #243, 1.999999999999995337, 0.7853981633974516097 ) ;
#51 = ORIENTED_EDGE ( 'NONE', *, *, #45, .T. ) ;
#52 = EDGE_LOOP ( 'NONE', ( #208 ) ) ;
#53 = CARTESIAN_POINT ( 'NONE',  ( 0.0000000000000000000, 0.0000000000000000000, 0.0000000000000000000 ) ) ;
#54 = LOCAL_TIME ( 11, 2, 47.00000000000000000, #85 ) ;
#55 = EDGE_LOOP ( 'NONE', ( #189 ) ) ;
#56 = CARTESIAN_POINT ( 'NONE',  ( 2.793185071074506684E-13, -7.225416114969383207E-15, 80.00000000000000000 ) ) ;
#57 = CARTESIAN_POINT ( 'NONE',  ( 4.780006098493130259E-14, 6.443973502026970826E-15, 13.69048158818725369 ) ) ;
#58 = AXIS2_PLACEMENT_3D ( 'NONE', #6, #59, #3 ) ;
#59 = DIRECTION ( 'NONE',  ( -3.491481338843133355E-15, 9.031770143711729009E-17, -1.000000000000000000 ) ) ;
#60 = ADVANCED_FACE ( 'NONE', ( #21, #135 ), #43, .T. ) ;
#61 = CARTESIAN_POINT ( 'NONE',  ( 4.780006098493129628E-14, -1.236492828612247517E-15, 13.69048158818725192 ) ) ;
#62 = VERTEX_POINT ( 'NONE', #111 ) ;
#63 = PERSON_AND_ORGANIZATION ( #118, #143 ) ;
#64 = UNCERTAINTY_MEASURE_WITH_UNIT (LENGTH_MEASURE( 1.000000000000000082E-05 ), #30, 'distance_accuracy_value', 'NONE');
#65 = CALENDAR_DATE ( 2021, 26, 11 ) ;
#66 = CALENDAR_DATE ( 2021, 26, 11 ) ;
#67 = APPLICATION_PROTOCOL_DEFINITION ( 'international standard', 'config_control_design', 1994, #175 ) ;
#68 = PERSON_AND_ORGANIZATION ( #118, #143 ) ;
#69 = DIRECTION ( 'NONE',  ( -1.683195443576702274E-30, 1.000000000000000000, -4.737773982802345677E-16 ) ) ;
#70 =( GEOMETRIC_REPRESENTATION_CONTEXT ( 3 ) GLOBAL_UNCERTAINTY_ASSIGNED_CONTEXT ( ( #64 ) ) GLOBAL_UNIT_ASSIGNED_CONTEXT ( ( #30, #8, #218 ) ) REPRESENTATION_CONTEXT ( 'NONE', 'WORKASPACE' ) );
#71 = ORIENTED_EDGE ( 'NONE', *, *, #45, .F. ) ;
#72 = DIRECTION ( 'NONE',  ( -1.643405535838851175E-30, 1.000000000000000000, -4.706900528310933557E-16 ) ) ;
#73 = MANIFOLD_SOLID_BREP ( 'Corps-Déplacer/Copier1[1]', #32 ) ;
#74 = EDGE_LOOP ( 'NONE', ( #37 ) ) ;
#75 = CARTESIAN_POINT ( 'NONE',  ( 1.396592535537256498E-15, 1.882760211324378353E-16, 0.4000000000000009659 ) ) ;
#76 = CIRCLE ( 'NONE', #14, 2.173999999999998600 ) ;
#77 = CARTESIAN_POINT ( 'NONE',  ( 2.779219145719134403E-13, -7.189289034394536528E-15, 79.60000000000000853 ) ) ;
#78 = MANIFOLD_SOLID_BREP ( 'Corps-Déplacer/Copier1[2]', #168 ) ;
#79 = CARTESIAN_POINT ( 'NONE',  ( 4.780006098493129628E-14, 2.173999999999998156, 13.69048158818725192 ) ) ;
#80 = ADVANCED_FACE ( 'NONE', ( #211 ), #96, .T. ) ;
#81 = DIRECTION ( 'NONE',  ( -3.491481338843133355E-15, -4.706900528310934543E-16, -1.000000000000000000 ) ) ;
#82 = DIRECTION ( 'NONE',  ( 0.0000000000000000000, 1.000000000000000000, 0.0000000000000000000 ) ) ;
#83 = PLANE ( 'NONE',  #147 ) ;
#84 = DATE_AND_TIME ( #119, #9 ) ;
#85 = COORDINATED_UNIVERSAL_TIME_OFFSET ( 1, 0, .AHEAD. ) ;
#86 = DATE_AND_TIME ( #66, #54 ) ;
#87 = PERSON_AND_ORGANIZATION ( #118, #143 ) ;
#88 = MECHANICAL_CONTEXT ( 'NONE', #175, 'mechanical' ) ;
#89 = SECURITY_CLASSIFICATION ( '', '', #141 ) ;
#90 = ADVANCED_FACE ( 'NONE', ( #193, #132 ), #116, .T. ) ;
#91 = DIRECTION ( 'NONE',  ( -1.643405535838851175E-30, 1.000000000000000000, -4.706900528310934543E-16 ) ) ;
#92 = EDGE_LOOP ( 'NONE', ( #237 ) ) ;
#93 = ORIENTED_EDGE ( 'NONE', *, *, #26, .T. ) ;
#94 = CC_DESIGN_PERSON_AND_ORGANIZATION_ASSIGNMENT ( #29, #49, ( #232 ) ) ;
#95 = DIRECTION ( 'NONE',  ( -3.491481338843133355E-15, -4.706900528310934543E-16, -1.000000000000000000 ) ) ;
#96 = PLANE ( 'NONE',  #179 ) ;
#97 = AXIS2_PLACEMENT_3D ( 'NONE', #188, #95, #148 ) ;
#98 = CARTESIAN_POINT ( 'NONE',  ( 4.780006098493130259E-14, 6.443973502026970038E-15, 13.69048158818725369 ) ) ;
#99 = DIRECTION ( 'NONE',  ( -3.491481338843133355E-15, 9.031770143711729009E-17, -1.000000000000000000 ) ) ;
#100 = CIRCLE ( 'NONE', #5, 2.173999999999999488 ) ;
#101 = CARTESIAN_POINT ( 'NONE',  ( 2.793185071074506684E-13, -7.225416114969383207E-15, 80.00000000000000000 ) ) ;
#102 = CC_DESIGN_DATE_AND_TIME_ASSIGNMENT ( #84, #203, ( #232 ) ) ;
#103 = APPROVAL_STATUS ( 'not_yet_approved' ) ;
#104 = PRODUCT_DEFINITION_FORMATION_WITH_SPECIFIED_SOURCE ( 'ANY', '', #136, .NOT_KNOWN. ) ;
#105 = EDGE_CURVE ( 'NONE', #62, #62, #100, .T. ) ;
#106 = PERSON_AND_ORGANIZATION ( #118, #143 ) ;
#107 = CIRCLE ( 'NONE', #220, 1.999999999999995337 ) ;
#108 = CYLINDRICAL_SURFACE ( 'NONE', #19, 2.173999999999995048 ) ;
#109 = EDGE_LOOP ( 'NONE', ( #51 ) ) ;
#110 = PLANE ( 'NONE',  #97 ) ;
#111 = CARTESIAN_POINT ( 'NONE',  ( 4.780006098493129628E-14, 2.173999999999998156, 13.69048158818725192 ) ) ;
#112 = CARTESIAN_POINT ( 'NONE',  ( 1.396592535537252948E-15, 2.173999999999998600, 0.3999999999999999112 ) ) ;
#113 = DIRECTION ( 'NONE',  ( -3.491481338843133355E-15, 9.031770143711729009E-17, -1.000000000000000000 ) ) ;
#114 = CARTESIAN_POINT ( 'NONE',  ( 3.193235383511948204E-30, 4.304832205877884802E-31, 9.145789633720322387E-16 ) ) ;
#115 = DIRECTION ( 'NONE',  ( 3.153425691349006731E-31, 1.000000000000000000, 9.031770143711729009E-17 ) ) ;
#116 = CONICAL_SURFACE ( 'NONE', #187, 2.173999999999999488, 0.5235987755982947078 ) ;
#117 = APPROVAL_STATUS ( 'not_yet_approved' ) ;
#118 = PERSON ( 'UNSPECIFIED', 'UNSPECIFIED', 'UNSPECIFIED', ('UNSPECIFIED'), ('UNSPECIFIED'), ('UNSPECIFIED') ) ;
#119 = CALENDAR_DATE ( 2021, 26, 11 ) ;
#120 = EDGE_CURVE ( 'NONE', #190, #190, #201, .T. ) ;
#121 = AXIS2_PLACEMENT_3D ( 'NONE', #114, #153, #152 ) ;
#122 = CARTESIAN_POINT ( 'NONE',  ( 2.793185071074506684E-13, 1.599999999999987876, 80.00000000000000000 ) ) ;
#123 = APPLICATION_PROTOCOL_DEFINITION ( 'international standard', 'config_control_design', 1994, #11 ) ;
#124 = DIRECTION ( 'NONE',  ( -3.491481338843133355E-15, -4.706900528310934543E-16, -1.000000000000000000 ) ) ;
#125 = ORIENTED_EDGE ( 'NONE', *, *, #28, .F. ) ;
#126 = EDGE_LOOP ( 'NONE', ( #239 ) ) ;
#127 = CC_DESIGN_PERSON_AND_ORGANIZATION_ASSIGNMENT ( #87, #177, ( #136 ) ) ;
#128 = CC_DESIGN_APPROVAL ( #138, ( #232 ) ) ;
#129 = EDGE_LOOP ( 'NONE', ( #20 ) ) ;
#130 = EDGE_LOOP ( 'NONE', ( #242 ) ) ;
#131 = ADVANCED_FACE ( 'NONE', ( #169, #4 ), #22, .T. ) ;
#132 = FACE_OUTER_BOUND ( 'NONE', #129, .T. ) ;
#133 = VERTEX_POINT ( 'NONE', #235 ) ;
#134 = AXIS2_PLACEMENT_3D ( 'NONE', #224, #156, #171 ) ;
#135 = FACE_OUTER_BOUND ( 'NONE', #74, .T. ) ;
#136 = PRODUCT ( '321338', '321338', '', ( #88 ) ) ;
#137 = FACE_OUTER_BOUND ( 'NONE', #55, .T. ) ;
#138 = APPROVAL ( #103, 'UNSPECIFIED' ) ;
#139 = DIRECTION ( 'NONE',  ( 0.0000000000000000000, 1.000000000000000000, 0.0000000000000000000 ) ) ;
#140 = CIRCLE ( 'NONE', #154, 1.599999999999994982 ) ;
#141 = SECURITY_CLASSIFICATION_LEVEL ( 'unclassified' ) ;
#142 = PERSON_AND_ORGANIZATION ( #118, #143 ) ;
#143 = ORGANIZATION ( 'UNSPECIFIED', 'UNSPECIFIED', '' ) ;
#144 = ORIENTED_EDGE ( 'NONE', *, *, #120, .F. ) ;
#145 = EDGE_LOOP ( 'NONE', ( #93 ) ) ;
#146 = FACE_OUTER_BOUND ( 'NONE', #18, .T. ) ;
#147 = AXIS2_PLACEMENT_3D ( 'NONE', #56, #23, #7 ) ;
#148 = DIRECTION ( 'NONE',  ( -1.643405535838851175E-30, 1.000000000000000000, -4.706900528310934543E-16 ) ) ;
#149 = LOCAL_TIME ( 11, 2, 47.00000000000000000, #206 ) ;
#150 = CARTESIAN_POINT ( 'NONE',  ( 2.779219145719134403E-13, -7.189289034394536528E-15, 79.60000000000000853 ) ) ;
#151 = CC_DESIGN_PERSON_AND_ORGANIZATION_ASSIGNMENT ( #142, #159, ( #89 ) ) ;
#152 = DIRECTION ( 'NONE',  ( 1.643405535838851175E-30, -1.000000000000000000, 4.706900528310934543E-16 ) ) ;
#153 = DIRECTION ( 'NONE',  ( 3.491481338843133355E-15, 4.706900528310934543E-16, 1.000000000000000000 ) ) ;
#154 = AXIS2_PLACEMENT_3D ( 'NONE', #101, #227, #155 ) ;
#155 = DIRECTION ( 'NONE',  ( 0.0000000000000000000, 1.000000000000000000, 0.0000000000000000000 ) ) ;
#156 = DIRECTION ( 'NONE',  ( -3.491481338843133355E-15, 9.031770143711729009E-17, -1.000000000000000000 ) ) ;
#157 = AXIS2_PLACEMENT_3D ( 'NONE', #205, #33, #91 ) ;
#158 = COORDINATED_UNIVERSAL_TIME_OFFSET ( 1, 0, .AHEAD. ) ;
#159 = PERSON_AND_ORGANIZATION_ROLE ( 'classification_officer' ) ;
#160 = APPROVAL_ROLE ( '' ) ;
#161 = PERSON_AND_ORGANIZATION_ROLE ( 'creator' ) ;
#162 = SHAPE_DEFINITION_REPRESENTATION ( #182, #34 ) ;
#163 = EDGE_LOOP ( 'NONE', ( #71 ) ) ;
#164 = DESIGN_CONTEXT ( 'detailed design', #11, 'design' ) ;
#165 = AXIS2_PLACEMENT_3D ( 'NONE', #57, #81, #25 ) ;
#166 = CALENDAR_DATE ( 2021, 26, 11 ) ;
#167 = APPROVAL_PERSON_ORGANIZATION ( #106, #180, #160 ) ;
#168 = CLOSED_SHELL ( 'NONE', ( #80, #2, #131, #13 ) ) ;
#169 = FACE_OUTER_BOUND ( 'NONE', #145, .T. ) ;
#170 = CC_DESIGN_PERSON_AND_ORGANIZATION_ASSIGNMENT ( #44, #161, ( #104 ) ) ;
#171 = DIRECTION ( 'NONE',  ( 3.153425691349006731E-31, 1.000000000000000000, 9.031770143711729009E-17 ) ) ;
#172 = DIRECTION ( 'NONE',  ( 3.491481338843133355E-15, 4.706900528310934543E-16, 1.000000000000000000 ) ) ;
#173 = ADVANCED_FACE ( 'NONE', ( #176, #41 ), #50, .T. ) ;
#174 = DIRECTION ( 'NONE',  ( 0.0000000000000000000, 1.000000000000000000, 0.0000000000000000000 ) ) ;
#175 = APPLICATION_CONTEXT ( 'configuration controlled 3d designs of mechanical parts and assemblies' ) ;
#176 = FACE_BOUND ( 'NONE', #92, .T. ) ;
#177 = PERSON_AND_ORGANIZATION_ROLE ( 'design_owner' ) ;
#178 = APPROVAL_ROLE ( '' ) ;
#179 = AXIS2_PLACEMENT_3D ( 'NONE', #98, #172, #195 ) ;
#180 = APPROVAL ( #183, 'UNSPECIFIED' ) ;
#181 = CARTESIAN_POINT ( 'NONE',  ( 0.0000000000000000000, 0.0000000000000000000, 0.0000000000000000000 ) ) ;
#182 = PRODUCT_DEFINITION_SHAPE ( 'NONE', 'NONE',  #232 ) ;
#183 = APPROVAL_STATUS ( 'not_yet_approved' ) ;
#184 = PERSON_AND_ORGANIZATION_ROLE ( 'design_supplier' ) ;
#185 = DIRECTION ( 'NONE',  ( -3.491481338843133355E-15, -4.706900528310934543E-16, -1.000000000000000000 ) ) ;
#186 = APPROVAL_DATE_TIME ( #240, #180 ) ;
#187 = AXIS2_PLACEMENT_3D ( 'NONE', #61, #1, #139 ) ;
#188 = CARTESIAN_POINT ( 'NONE',  ( -1.596617691755974102E-30, 1.943059892324148663, -4.572894816860161193E-16 ) ) ;
#189 = ORIENTED_EDGE ( 'NONE', *, *, #225, .F. ) ;
#190 = VERTEX_POINT ( 'NONE', #79 ) ;
#191 = CIRCLE ( 'NONE', #58, 1.999999999999991784 ) ;
#192 = VERTEX_POINT ( 'NONE', #42 ) ;
#193 = FACE_BOUND ( 'NONE', #52, .T. ) ;
#194 = ADVANCED_FACE ( 'NONE', ( #137 ), #83, .T. ) ;
#195 = DIRECTION ( 'NONE',  ( 1.643405535838851175E-30, -1.000000000000000000, 4.706900528310934543E-16 ) ) ;
#196 = CARTESIAN_POINT ( 'NONE',  ( 2.779219145719134403E-13, 1.999999999999988010, 79.60000000000000853 ) ) ;
#197 = CC_DESIGN_APPROVAL ( #16, ( #104 ) ) ;
#198 = VERTEX_POINT ( 'NONE', #122 ) ;
#199 = CC_DESIGN_PERSON_AND_ORGANIZATION_ASSIGNMENT ( #63, #184, ( #104 ) ) ;
#200 = APPROVAL_DATE_TIME ( #47, #138 ) ;
#201 = CIRCLE ( 'NONE', #165, 2.173999999999991495 ) ;
#202 = DIRECTION ( 'NONE',  ( 1.000000000000000000, 0.0000000000000000000, 0.0000000000000000000 ) ) ;
#203 = DATE_TIME_ROLE ( 'creation_date' ) ;
#204 = EDGE_CURVE ( 'NONE', #133, #133, #191, .T. ) ;
#205 = CARTESIAN_POINT ( 'NONE',  ( 3.193235383511948204E-30, 4.304832205877884802E-31, 9.145789633720322387E-16 ) ) ;
#206 = COORDINATED_UNIVERSAL_TIME_OFFSET ( 1, 0, .AHEAD. ) ;
#207 = ORIENTED_EDGE ( 'NONE', *, *, #105, .T. ) ;
#208 = ORIENTED_EDGE ( 'NONE', *, *, #204, .T. ) ;
#209 = PLANE ( 'NONE',  #217 ) ;
#210 = AXIS2_PLACEMENT_3D ( 'NONE', #181, #234, #202 ) ;
#211 = FACE_OUTER_BOUND ( 'NONE', #236, .T. ) ;
#212 = CARTESIAN_POINT ( 'NONE',  ( 4.780006098493130259E-14, 2.173999999999998156, 13.69048158818725369 ) ) ;
#213 = DIRECTION ( 'NONE',  ( -3.491481338843133355E-15, 9.031770143711729009E-17, -1.000000000000000000 ) ) ;
#214 = CIRCLE ( 'NONE', #157, 1.943059892324148663 ) ;
#215 = COORDINATED_UNIVERSAL_TIME_OFFSET ( 1, 0, .AHEAD. ) ;
#216 = DATE_TIME_ROLE ( 'classification_date' ) ;
#217 = AXIS2_PLACEMENT_3D ( 'NONE', #212, #113, #115 ) ;
#218 =( NAMED_UNIT ( * ) SI_UNIT ( $, .STERADIAN. ) SOLID_ANGLE_UNIT ( ) );
#219 = EDGE_LOOP ( 'NONE', ( #207 ) ) ;
#220 = AXIS2_PLACEMENT_3D ( 'NONE', #77, #213, #229 ) ;
#221 = CC_DESIGN_DATE_AND_TIME_ASSIGNMENT ( #233, #216, ( #89 ) ) ;
#222 = FACE_OUTER_BOUND ( 'NONE', #126, .T. ) ;
#223 = LOCAL_TIME ( 11, 2, 47.00000000000000000, #215 ) ;
#224 = CARTESIAN_POINT ( 'NONE',  ( 0.0000000000000000000, 0.0000000000000000000, 0.0000000000000000000 ) ) ;
#225 = EDGE_CURVE ( 'NONE', #198, #198, #140, .T. ) ;
#226 = VERTEX_POINT ( 'NONE', #112 ) ;
#227 = DIRECTION ( 'NONE',  ( -3.491481338843133355E-15, 9.031770143711729009E-17, -1.000000000000000000 ) ) ;
#228 = VERTEX_POINT ( 'NONE', #196 ) ;
#229 = DIRECTION ( 'NONE',  ( 0.0000000000000000000, 1.000000000000000000, 0.0000000000000000000 ) ) ;
#230 = APPROVAL_DATE_TIME ( #86, #16 ) ;
#231 = CC_DESIGN_APPROVAL ( #180, ( #89 ) ) ;
#232 = PRODUCT_DEFINITION ( 'UNKNOWN', '', #104, #164 ) ;
#233 = DATE_AND_TIME ( #65, #223 ) ;
#234 = DIRECTION ( 'NONE',  ( 0.0000000000000000000, 0.0000000000000000000, 1.000000000000000000 ) ) ;
#235 = CARTESIAN_POINT ( 'NONE',  ( 4.885231259955590439E-14, 1.999999999999990452, 13.99185842870425134 ) ) ;
#236 = EDGE_LOOP ( 'NONE', ( #144 ) ) ;
#237 = ORIENTED_EDGE ( 'NONE', *, *, #225, .T. ) ;
#238 = LOCAL_TIME ( 11, 2, 47.00000000000000000, #46 ) ;
#239 = ORIENTED_EDGE ( 'NONE', *, *, #26, .F. ) ;
#240 = DATE_AND_TIME ( #166, #149 ) ;
#241 = ADVANCED_FACE ( 'NONE', ( #24 ), #209, .T. ) ;
#242 = ORIENTED_EDGE ( 'NONE', *, *, #28, .T. ) ;
#243 = AXIS2_PLACEMENT_3D ( 'NONE', #150, #99, #174 ) ;
ENDSEC;
END-ISO-10303-21;
