ISO-10303-21;
HEADER;
FILE_DESCRIPTION (( 'STEP AP203' ),
    '1' );
FILE_NAME ('321337.step',
    '2021-11-26T10:02:46',
    ( '' ),
    ( '' ),
    'SwSTEP 2.0',
    'SolidWorks 2019',
    '' );
FILE_SCHEMA (( 'CONFIG_CONTROL_DESIGN' ));
ENDSEC;

DATA;
#1 = APPROVAL_DATE_TIME ( #41, #51 ) ;
#2 = DATE_AND_TIME ( #138, #80 ) ;
#3 = AXIS2_PLACEMENT_3D ( 'NONE', #90, #178, #197 ) ;
#4 = DATE_TIME_ROLE ( 'classification_date' ) ;
#5 = CC_DESIGN_PERSON_AND_ORGANIZATION_ASSIGNMENT ( #190, #153, ( #59 ) ) ;
#6 = DIRECTION ( 'NONE',  ( 3.491481338843133355E-15, 4.702376561788483484E-16, 1.000000000000000000 ) ) ;
#7 = DIRECTION ( 'NONE',  ( -3.491481338843133355E-15, 9.031770143711729009E-17, -1.000000000000000000 ) ) ;
#8 = CYLINDRICAL_SURFACE ( 'NONE', #144, 2.168999999999994710 ) ;
#9 = ORGANIZATION ( 'UNSPECIFIED', 'UNSPECIFIED', '' ) ;
#10 = PLANE ( 'NONE',  #32 ) ;
#11 = CC_DESIGN_PERSON_AND_ORGANIZATION_ASSIGNMENT ( #60, #19, ( #59 ) ) ;
#12 = CARTESIAN_POINT ( 'NONE',  ( 4.783029810029405870E-14, 2.168999999999998263, 13.69914184222509412 ) ) ;
#13 = AXIS2_PLACEMENT_3D ( 'NONE', #128, #112, #160 ) ;
#14 = ADVANCED_FACE ( 'NONE', ( #47, #232 ), #238, .T. ) ;
#15 =( NAMED_UNIT ( * ) SI_UNIT ( $, .STERADIAN. ) SOLID_ANGLE_UNIT ( ) );
#16 = CALENDAR_DATE ( 2021, 26, 11 ) ;
#17 = CIRCLE ( 'NONE', #156, 2.168999999999999595 ) ;
#18 = EDGE_LOOP ( 'NONE', ( #219 ) ) ;
#19 = PERSON_AND_ORGANIZATION_ROLE ( 'design_supplier' ) ;
#20 = ADVANCED_FACE ( 'NONE', ( #163, #123 ), #124, .T. ) ;
#21 = CLOSED_SHELL ( 'NONE', ( #217, #130, #20, #14, #42 ) ) ;
#22 = ORIENTED_EDGE ( 'NONE', *, *, #240, .T. ) ;
#23 = CARTESIAN_POINT ( 'NONE',  ( 2.793185071074506684E-13, -7.225416114969383207E-15, 80.00000000000000000 ) ) ;
#24 = AXIS2_PLACEMENT_3D ( 'NONE', #142, #89, #92 ) ;
#25 = DIRECTION ( 'NONE',  ( -3.491481338843133355E-15, 9.031770143711729009E-17, -1.000000000000000000 ) ) ;
#26 = PLANE ( 'NONE',  #125 ) ;
#27 = CARTESIAN_POINT ( 'NONE',  ( 3.181957123429707342E-30, 4.285504960708029246E-31, 9.113487413007384860E-16 ) ) ;
#28 = APPROVAL_PERSON_ORGANIZATION ( #82, #86, #172 ) ;
#29 = DIRECTION ( 'NONE',  ( 0.0000000000000000000, 1.000000000000000000, 0.0000000000000000000 ) ) ;
#30 = CARTESIAN_POINT ( 'NONE',  ( 4.885231259955590439E-14, 1.999999999999990452, 13.99185842870425134 ) ) ;
#31 = CC_DESIGN_DATE_AND_TIME_ASSIGNMENT ( #204, #61, ( #126 ) ) ;
#32 = AXIS2_PLACEMENT_3D ( 'NONE', #94, #237, #98 ) ;
#33 = CC_DESIGN_SECURITY_CLASSIFICATION ( #221, ( #59 ) ) ;
#34 = ORIENTED_EDGE ( 'NONE', *, *, #240, .F. ) ;
#35 = CARTESIAN_POINT ( 'NONE',  ( 2.793185071074506684E-13, 1.599999999999987876, 80.00000000000000000 ) ) ;
#36 = COORDINATED_UNIVERSAL_TIME_OFFSET ( 1, 0, .AHEAD. ) ;
#37 = ORIENTED_EDGE ( 'NONE', *, *, #233, .F. ) ;
#38 = AXIS2_PLACEMENT_3D ( 'NONE', #208, #7, #157 ) ;
#39 = DATE_AND_TIME ( #16, #134 ) ;
#40 = PERSON_AND_ORGANIZATION ( #231, #9 ) ;
#41 = DATE_AND_TIME ( #58, #111 ) ;
#42 = ADVANCED_FACE ( 'NONE', ( #179 ), #210, .T. ) ;
#43 = AXIS2_PLACEMENT_3D ( 'NONE', #176, #50, #195 ) ;
#44 = FACE_OUTER_BOUND ( 'NONE', #81, .T. ) ;
#45 = DIRECTION ( 'NONE',  ( 3.491481338843133355E-15, 4.702376561788483484E-16, 1.000000000000000000 ) ) ;
#46 = EDGE_CURVE ( 'NONE', #117, #117, #110, .T. ) ;
#47 = FACE_BOUND ( 'NONE', #140, .T. ) ;
#48 = CARTESIAN_POINT ( 'NONE',  ( 4.783029810029405239E-14, 6.441852351549517583E-15, 13.69914184222509235 ) ) ;
#49 = EDGE_CURVE ( 'NONE', #170, #170, #167, .T. ) ;
#50 = DIRECTION ( 'NONE',  ( -3.491481338843133355E-15, -4.702376561788483484E-16, -1.000000000000000000 ) ) ;
#51 = APPROVAL ( #119, 'UNSPECIFIED' ) ;
#52 = COORDINATED_UNIVERSAL_TIME_OFFSET ( 1, 0, .AHEAD. ) ;
#53 = DIRECTION ( 'NONE',  ( 1.000000000000000000, 0.0000000000000000000, 0.0000000000000000000 ) ) ;
#54 = AXIS2_PLACEMENT_3D ( 'NONE', #127, #193, #67 ) ;
#55 = EDGE_LOOP ( 'NONE', ( #88 ) ) ;
#56 = ORIENTED_EDGE ( 'NONE', *, *, #211, .T. ) ;
#57 = ORIENTED_EDGE ( 'NONE', *, *, #46, .F. ) ;
#58 = CALENDAR_DATE ( 2021, 26, 11 ) ;
#59 = PRODUCT_DEFINITION_FORMATION_WITH_SPECIFIED_SOURCE ( 'ANY', '', #202, .NOT_KNOWN. ) ;
#60 = PERSON_AND_ORGANIZATION ( #231, #9 ) ;
#61 = DATE_TIME_ROLE ( 'creation_date' ) ;
#62 = PRODUCT_RELATED_PRODUCT_CATEGORY ( 'detail', '', ( #202 ) ) ;
#63 = EDGE_LOOP ( 'NONE', ( #149 ) ) ;
#64 = CIRCLE ( 'NONE', #101, 1.999999999999995337 ) ;
#65 = PLANE ( 'NONE',  #43 ) ;
#66 = DESIGN_CONTEXT ( 'detailed design', #164, 'design' ) ;
#67 = DIRECTION ( 'NONE',  ( 3.153425691349006731E-31, 1.000000000000000000, 9.031770143711729009E-17 ) ) ;
#68 = CARTESIAN_POINT ( 'NONE',  ( 2.779219145719134403E-13, -7.189289034394536528E-15, 79.60000000000000853 ) ) ;
#69 = ADVANCED_FACE ( 'NONE', ( #129 ), #26, .T. ) ;
#70 = MANIFOLD_SOLID_BREP ( 'Corps-Déplacer/Copier1[2]', #150 ) ;
#71 = FACE_OUTER_BOUND ( 'NONE', #228, .T. ) ;
#72 = DIRECTION ( 'NONE',  ( -3.491481338843133355E-15, 9.031770143711729009E-17, -1.000000000000000000 ) ) ;
#73 = APPLICATION_PROTOCOL_DEFINITION ( 'international standard', 'config_control_design', 1994, #164 ) ;
#74 = CARTESIAN_POINT ( 'NONE',  ( 6.842277657836020854E-46, 1.938059892324147881, 0.0000000000000000000 ) ) ;
#75 = APPROVAL ( #151, 'UNSPECIFIED' ) ;
#76 = VERTEX_POINT ( 'NONE', #12 ) ;
#77 = EDGE_LOOP ( 'NONE', ( #137 ) ) ;
#78 = PERSON_AND_ORGANIZATION_ROLE ( 'design_owner' ) ;
#79 = AXIS2_PLACEMENT_3D ( 'NONE', #27, #45, #214 ) ;
#80 = LOCAL_TIME ( 11, 2, 46.00000000000000000, #104 ) ;
#81 = EDGE_LOOP ( 'NONE', ( #56 ) ) ;
#82 = PERSON_AND_ORGANIZATION ( #231, #9 ) ;
#83 = EDGE_CURVE ( 'NONE', #215, #215, #131, .T. ) ;
#84 = SHAPE_DEFINITION_REPRESENTATION ( #99, #152 ) ;
#85 = LOCAL_TIME ( 11, 2, 46.00000000000000000, #36 ) ;
#86 = APPROVAL ( #121, 'UNSPECIFIED' ) ;
#87 = APPROVAL_DATE_TIME ( #2, #86 ) ;
#88 = ORIENTED_EDGE ( 'NONE', *, *, #83, .F. ) ;
#89 = DIRECTION ( 'NONE',  ( -3.491481338843133355E-15, -4.702376561788483484E-16, -1.000000000000000000 ) ) ;
#90 = CARTESIAN_POINT ( 'NONE',  ( 4.783029810029406501E-14, 6.441852351549519949E-15, 13.69914184222509590 ) ) ;
#91 = CC_DESIGN_DATE_AND_TIME_ASSIGNMENT ( #39, #4, ( #221 ) ) ;
#92 = DIRECTION ( 'NONE',  ( -1.598282111524678823E-30, 1.000000000000000000, -4.748695545694930100E-16 ) ) ;
#93 = FACE_OUTER_BOUND ( 'NONE', #120, .T. ) ;
#94 = CARTESIAN_POINT ( 'NONE',  ( 2.793185071074506684E-13, -7.225416114969383207E-15, 80.00000000000000000 ) ) ;
#95 = DIRECTION ( 'NONE',  ( 0.0000000000000000000, 0.0000000000000000000, 1.000000000000000000 ) ) ;
#96 = AXIS2_PLACEMENT_3D ( 'NONE', #23, #25, #234 ) ;
#97 = CARTESIAN_POINT ( 'NONE',  ( 4.783029810029405870E-14, -1.237275002850807010E-15, 13.69914184222509412 ) ) ;
#98 = DIRECTION ( 'NONE',  ( -3.153425691349006731E-31, -1.000000000000000000, -9.031770143711729009E-17 ) ) ;
#99 = PRODUCT_DEFINITION_SHAPE ( 'NONE', 'NONE',  #126 ) ;
#100 = PERSON_AND_ORGANIZATION_ROLE ( 'classification_officer' ) ;
#101 = AXIS2_PLACEMENT_3D ( 'NONE', #143, #141, #29 ) ;
#102 = CC_DESIGN_APPROVAL ( #86, ( #221 ) ) ;
#103 = CC_DESIGN_PERSON_AND_ORGANIZATION_ASSIGNMENT ( #205, #139, ( #126 ) ) ;
#104 = COORDINATED_UNIVERSAL_TIME_OFFSET ( 1, 0, .AHEAD. ) ;
#105 = AXIS2_PLACEMENT_3D ( 'NONE', #68, #72, #230 ) ;
#106 =( GEOMETRIC_REPRESENTATION_CONTEXT ( 3 ) GLOBAL_UNCERTAINTY_ASSIGNED_CONTEXT ( ( #168 ) ) GLOBAL_UNIT_ASSIGNED_CONTEXT ( ( #239, #198, #15 ) ) REPRESENTATION_CONTEXT ( 'NONE', 'WORKASPACE' ) );
#107 = SECURITY_CLASSIFICATION_LEVEL ( 'unclassified' ) ;
#108 = ORIENTED_EDGE ( 'NONE', *, *, #49, .T. ) ;
#109 = DIRECTION ( 'NONE',  ( -3.491481338843133355E-15, -4.702376561788483484E-16, -1.000000000000000000 ) ) ;
#110 = CIRCLE ( 'NONE', #24, 2.168999999999997819 ) ;
#111 = LOCAL_TIME ( 11, 2, 46.00000000000000000, #189 ) ;
#112 = DIRECTION ( 'NONE',  ( -3.491481338843133355E-15, 9.031770143711729009E-17, -1.000000000000000000 ) ) ;
#113 = DIRECTION ( 'NONE',  ( 1.641826001369782360E-30, -1.000000000000000000, 4.702376561788483484E-16 ) ) ;
#114 = CARTESIAN_POINT ( 'NONE',  ( 4.783029810029405870E-14, -1.237275002850807010E-15, 13.69914184222509412 ) ) ;
#115 = CC_DESIGN_APPROVAL ( #51, ( #59 ) ) ;
#116 = CARTESIAN_POINT ( 'NONE',  ( 4.783029810029405870E-14, 2.168999999999998263, 13.69914184222509412 ) ) ;
#117 = VERTEX_POINT ( 'NONE', #165 ) ;
#118 = EDGE_LOOP ( 'NONE', ( #34 ) ) ;
#119 = APPROVAL_STATUS ( 'not_yet_approved' ) ;
#120 = EDGE_LOOP ( 'NONE', ( #220 ) ) ;
#121 = APPROVAL_STATUS ( 'not_yet_approved' ) ;
#122 = APPROVAL_ROLE ( '' ) ;
#123 = FACE_OUTER_BOUND ( 'NONE', #55, .T. ) ;
#124 = CYLINDRICAL_SURFACE ( 'NONE', #54, 1.999999999999993561 ) ;
#125 = AXIS2_PLACEMENT_3D ( 'NONE', #48, #6, #113 ) ;
#126 = PRODUCT_DEFINITION ( 'UNKNOWN', '', #59, #66 ) ;
#127 = CARTESIAN_POINT ( 'NONE',  ( 0.0000000000000000000, 0.0000000000000000000, 0.0000000000000000000 ) ) ;
#128 = CARTESIAN_POINT ( 'NONE',  ( 4.885231259955590439E-14, -1.263712492114123682E-15, 13.99185842870425134 ) ) ;
#129 = FACE_OUTER_BOUND ( 'NONE', #243, .T. ) ;
#130 = ADVANCED_FACE ( 'NONE', ( #196, #93 ), #184, .T. ) ;
#131 = CIRCLE ( 'NONE', #13, 1.999999999999991784 ) ;
#132 = VERTEX_POINT ( 'NONE', #135 ) ;
#133 = APPLICATION_PROTOCOL_DEFINITION ( 'international standard', 'config_control_design', 1994, #224 ) ;
#134 = LOCAL_TIME ( 11, 2, 46.00000000000000000, #227 ) ;
#135 = CARTESIAN_POINT ( 'NONE',  ( 2.779219145719134403E-13, 1.999999999999988010, 79.60000000000000853 ) ) ;
#136 = DIRECTION ( 'NONE',  ( -1.641826001369782360E-30, 1.000000000000000000, -4.702376561788483484E-16 ) ) ;
#137 = ORIENTED_EDGE ( 'NONE', *, *, #46, .T. ) ;
#138 = CALENDAR_DATE ( 2021, 26, 11 ) ;
#139 = PERSON_AND_ORGANIZATION_ROLE ( 'creator' ) ;
#140 = EDGE_LOOP ( 'NONE', ( #223 ) ) ;
#141 = DIRECTION ( 'NONE',  ( -3.491481338843133355E-15, 9.031770143711729009E-17, -1.000000000000000000 ) ) ;
#142 = CARTESIAN_POINT ( 'NONE',  ( 1.396592535537256498E-15, 1.880950624715397634E-16, 0.4000000000000009659 ) ) ;
#143 = CARTESIAN_POINT ( 'NONE',  ( 2.779219145719134403E-13, -7.189289034394536528E-15, 79.60000000000000853 ) ) ;
#144 = AXIS2_PLACEMENT_3D ( 'NONE', #161, #109, #159 ) ;
#145 = ORIENTED_EDGE ( 'NONE', *, *, #233, .T. ) ;
#146 = FACE_OUTER_BOUND ( 'NONE', #147, .T. ) ;
#147 = EDGE_LOOP ( 'NONE', ( #145 ) ) ;
#148 = DIRECTION ( 'NONE',  ( -3.491481338843133355E-15, -4.702376561788483484E-16, -1.000000000000000000 ) ) ;
#149 = ORIENTED_EDGE ( 'NONE', *, *, #177, .T. ) ;
#150 = CLOSED_SHELL ( 'NONE', ( #69, #203, #194, #166 ) ) ;
#151 = APPROVAL_STATUS ( 'not_yet_approved' ) ;
#152 = ADVANCED_BREP_SHAPE_REPRESENTATION ( '321337', ( #226, #70, #235 ), #106 ) ;
#153 = PERSON_AND_ORGANIZATION_ROLE ( 'creator' ) ;
#154 = CALENDAR_DATE ( 2021, 26, 11 ) ;
#155 = CC_DESIGN_PERSON_AND_ORGANIZATION_ASSIGNMENT ( #241, #78, ( #202 ) ) ;
#156 = AXIS2_PLACEMENT_3D ( 'NONE', #97, #169, #218 ) ;
#157 = DIRECTION ( 'NONE',  ( 3.153425691349006731E-31, 1.000000000000000000, 9.031770143711729009E-17 ) ) ;
#158 = APPROVAL_PERSON_ORGANIZATION ( #40, #51, #122 ) ;
#159 = DIRECTION ( 'NONE',  ( -1.641826001369782360E-30, 1.000000000000000000, -4.702376561788483484E-16 ) ) ;
#160 = DIRECTION ( 'NONE',  ( 0.0000000000000000000, 1.000000000000000000, 0.0000000000000000000 ) ) ;
#161 = CARTESIAN_POINT ( 'NONE',  ( 0.0000000000000000000, 0.0000000000000000000, 0.0000000000000000000 ) ) ;
#162 = CONICAL_SURFACE ( 'NONE', #79, 1.938059892324147881, 0.5235987755982979275 ) ;
#163 = FACE_OUTER_BOUND ( 'NONE', #63, .T. ) ;
#164 = APPLICATION_CONTEXT ( 'configuration controlled 3d designs of mechanical parts and assemblies' ) ;
#165 = CARTESIAN_POINT ( 'NONE',  ( 1.396592535537253145E-15, 2.168999999999997819, 0.3999999999999999112 ) ) ;
#166 = ADVANCED_FACE ( 'NONE', ( #146 ), #65, .T. ) ;
#167 = CIRCLE ( 'NONE', #96, 1.599999999999994982 ) ;
#168 = UNCERTAINTY_MEASURE_WITH_UNIT (LENGTH_MEASURE( 1.000000000000000082E-05 ), #239, 'distance_accuracy_value', 'NONE');
#169 = DIRECTION ( 'NONE',  ( -3.491481338843133355E-15, 9.031770143711729009E-17, -1.000000000000000000 ) ) ;
#170 = VERTEX_POINT ( 'NONE', #35 ) ;
#171 = EDGE_LOOP ( 'NONE', ( #37 ) ) ;
#172 = APPROVAL_ROLE ( '' ) ;
#173 = APPROVAL_DATE_TIME ( #188, #75 ) ;
#174 = CIRCLE ( 'NONE', #229, 1.938059892324147881 ) ;
#175 = PERSON_AND_ORGANIZATION ( #231, #9 ) ;
#176 = CARTESIAN_POINT ( 'NONE',  ( -1.590978561714853671E-30, 1.938059892324147881, -4.556743706503692430E-16 ) ) ;
#177 = EDGE_CURVE ( 'NONE', #132, #132, #64, .T. ) ;
#178 = DIRECTION ( 'NONE',  ( -3.491481338843133355E-15, -4.702376561788483484E-16, -1.000000000000000000 ) ) ;
#179 = FACE_OUTER_BOUND ( 'NONE', #187, .T. ) ;
#180 = FACE_OUTER_BOUND ( 'NONE', #77, .T. ) ;
#181 = DIRECTION ( 'NONE',  ( 0.0000000000000000000, 1.000000000000000000, 0.0000000000000000000 ) ) ;
#182 = PERSON_AND_ORGANIZATION ( #231, #9 ) ;
#183 = CARTESIAN_POINT ( 'NONE',  ( 3.181957123429707342E-30, 4.285504960708029246E-31, 9.113487413007384860E-16 ) ) ;
#184 = CONICAL_SURFACE ( 'NONE', #105, 1.999999999999995337, 0.7853981633974516097 ) ;
#185 = ORIENTED_EDGE ( 'NONE', *, *, #211, .F. ) ;
#186 = FACE_OUTER_BOUND ( 'NONE', #18, .T. ) ;
#187 = EDGE_LOOP ( 'NONE', ( #22 ) ) ;
#188 = DATE_AND_TIME ( #154, #216 ) ;
#189 = COORDINATED_UNIVERSAL_TIME_OFFSET ( 1, 0, .AHEAD. ) ;
#190 = PERSON_AND_ORGANIZATION ( #231, #9 ) ;
#191 = EDGE_LOOP ( 'NONE', ( #108 ) ) ;
#192 = DIRECTION ( 'NONE',  ( -3.491481338843133355E-15, 9.031770143711729009E-17, -1.000000000000000000 ) ) ;
#193 = DIRECTION ( 'NONE',  ( -3.491481338843133355E-15, 9.031770143711729009E-17, -1.000000000000000000 ) ) ;
#194 = ADVANCED_FACE ( 'NONE', ( #180, #212 ), #162, .T. ) ;
#195 = DIRECTION ( 'NONE',  ( -1.641826001369782360E-30, 1.000000000000000000, -4.702376561788483484E-16 ) ) ;
#196 = FACE_BOUND ( 'NONE', #191, .T. ) ;
#197 = DIRECTION ( 'NONE',  ( -2.841390420488325692E-30, 1.000000000000000000, -7.997803024328325331E-16 ) ) ;
#198 =( NAMED_UNIT ( * ) PLANE_ANGLE_UNIT ( ) SI_UNIT ( $, .RADIAN. ) );
#199 = MECHANICAL_CONTEXT ( 'NONE', #224, 'mechanical' ) ;
#200 = APPROVAL_PERSON_ORGANIZATION ( #182, #75, #222 ) ;
#201 = VERTEX_POINT ( 'NONE', #116 ) ;
#202 = PRODUCT ( '321337', '321337', '', ( #199 ) ) ;
#203 = ADVANCED_FACE ( 'NONE', ( #44, #71 ), #8, .T. ) ;
#204 = DATE_AND_TIME ( #225, #85 ) ;
#205 = PERSON_AND_ORGANIZATION ( #231, #9 ) ;
#206 = AXIS2_PLACEMENT_3D ( 'NONE', #114, #192, #181 ) ;
#207 = CIRCLE ( 'NONE', #3, 2.168999999999991601 ) ;
#208 = CARTESIAN_POINT ( 'NONE',  ( 4.783029810029405239E-14, 2.168999999999998263, 13.69914184222509235 ) ) ;
#209 = CC_DESIGN_PERSON_AND_ORGANIZATION_ASSIGNMENT ( #175, #100, ( #221 ) ) ;
#210 = PLANE ( 'NONE',  #38 ) ;
#211 = EDGE_CURVE ( 'NONE', #201, #201, #207, .T. ) ;
#212 = FACE_BOUND ( 'NONE', #171, .T. ) ;
#213 = CC_DESIGN_APPROVAL ( #75, ( #126 ) ) ;
#214 = DIRECTION ( 'NONE',  ( 1.641826001369782009E-30, -1.000000000000000000, 4.702376561788483484E-16 ) ) ;
#215 = VERTEX_POINT ( 'NONE', #30 ) ;
#216 = LOCAL_TIME ( 11, 2, 46.00000000000000000, #52 ) ;
#217 = ADVANCED_FACE ( 'NONE', ( #186 ), #10, .T. ) ;
#218 = DIRECTION ( 'NONE',  ( 0.0000000000000000000, 1.000000000000000000, 0.0000000000000000000 ) ) ;
#219 = ORIENTED_EDGE ( 'NONE', *, *, #49, .F. ) ;
#220 = ORIENTED_EDGE ( 'NONE', *, *, #177, .F. ) ;
#221 = SECURITY_CLASSIFICATION ( '', '', #107 ) ;
#222 = APPROVAL_ROLE ( '' ) ;
#223 = ORIENTED_EDGE ( 'NONE', *, *, #83, .T. ) ;
#224 = APPLICATION_CONTEXT ( 'configuration controlled 3d designs of mechanical parts and assemblies' ) ;
#225 = CALENDAR_DATE ( 2021, 26, 11 ) ;
#226 = MANIFOLD_SOLID_BREP ( 'Corps-Déplacer/Copier1[1]', #21 ) ;
#227 = COORDINATED_UNIVERSAL_TIME_OFFSET ( 1, 0, .AHEAD. ) ;
#228 = EDGE_LOOP ( 'NONE', ( #57 ) ) ;
#229 = AXIS2_PLACEMENT_3D ( 'NONE', #183, #148, #136 ) ;
#230 = DIRECTION ( 'NONE',  ( 0.0000000000000000000, 1.000000000000000000, 0.0000000000000000000 ) ) ;
#231 = PERSON ( 'UNSPECIFIED', 'UNSPECIFIED', 'UNSPECIFIED', ('UNSPECIFIED'), ('UNSPECIFIED'), ('UNSPECIFIED') ) ;
#232 = FACE_OUTER_BOUND ( 'NONE', #118, .T. ) ;
#233 = EDGE_CURVE ( 'NONE', #236, #236, #174, .T. ) ;
#234 = DIRECTION ( 'NONE',  ( 0.0000000000000000000, 1.000000000000000000, 0.0000000000000000000 ) ) ;
#235 = AXIS2_PLACEMENT_3D ( 'NONE', #242, #95, #53 ) ;
#236 = VERTEX_POINT ( 'NONE', #74 ) ;
#237 = DIRECTION ( 'NONE',  ( 3.491481338843133355E-15, -9.031770143711729009E-17, 1.000000000000000000 ) ) ;
#238 = CONICAL_SURFACE ( 'NONE', #206, 2.168999999999999595, 0.5235987755982937086 ) ;
#239 =( LENGTH_UNIT ( ) NAMED_UNIT ( * ) SI_UNIT ( .MILLI., .METRE. ) );
#240 = EDGE_CURVE ( 'NONE', #76, #76, #17, .T. ) ;
#241 = PERSON_AND_ORGANIZATION ( #231, #9 ) ;
#242 = CARTESIAN_POINT ( 'NONE',  ( 0.0000000000000000000, 0.0000000000000000000, 0.0000000000000000000 ) ) ;
#243 = EDGE_LOOP ( 'NONE', ( #185 ) ) ;
ENDSEC;
END-ISO-10303-21;
