ISO-10303-21;
HEADER;
FILE_DESCRIPTION (( 'STEP AP203' ),
    '1' );
FILE_NAME ('321336.step',
    '2021-11-26T10:02:45',
    ( '' ),
    ( '' ),
    'SwSTEP 2.0',
    'SolidWorks 2019',
    '' );
FILE_SCHEMA (( 'CONFIG_CONTROL_DESIGN' ));
ENDSEC;

DATA;
#1 = APPROVAL_ROLE ( '' ) ;
#2 = CONICAL_SURFACE ( 'NONE', #117, 1.999999999999995337, 0.7853981633974516097 ) ;
#3 = PRODUCT_DEFINITION_FORMATION_WITH_SPECIFIED_SOURCE ( 'ANY', '', #85, .NOT_KNOWN. ) ;
#4 = ADVANCED_FACE ( 'NONE', ( #206 ), #207, .T. ) ;
#5 = APPROVAL_ROLE ( '' ) ;
#6 = CC_DESIGN_PERSON_AND_ORGANIZATION_ASSIGNMENT ( #27, #48, ( #223 ) ) ;
#7 = ORIENTED_EDGE ( 'NONE', *, *, #191, .T. ) ;
#8 = DIRECTION ( 'NONE',  ( -3.491481338843133355E-15, 9.031770143711729009E-17, -1.000000000000000000 ) ) ;
#9 = DESIGN_CONTEXT ( 'detailed design', #144, 'design' ) ;
#10 = FACE_OUTER_BOUND ( 'NONE', #113, .T. ) ;
#11 = DIRECTION ( 'NONE',  ( 3.491481338843133355E-15, 4.697858311528789447E-16, 1.000000000000000000 ) ) ;
#12 = DIRECTION ( 'NONE',  ( -3.491481338843133355E-15, 9.031770143711729009E-17, -1.000000000000000000 ) ) ;
#13 = PRODUCT_RELATED_PRODUCT_CATEGORY ( 'detail', '', ( #85 ) ) ;
#14 = VERTEX_POINT ( 'NONE', #128 ) ;
#15 = EDGE_LOOP ( 'NONE', ( #172 ) ) ;
#16 = EDGE_CURVE ( 'NONE', #131, #131, #199, .T. ) ;
#17 = CC_DESIGN_APPROVAL ( #104, ( #3 ) ) ;
#18 = DIRECTION ( 'NONE',  ( -3.491481338843133355E-15, 9.031770143711729009E-17, -1.000000000000000000 ) ) ;
#19 = CARTESIAN_POINT ( 'NONE',  ( 4.786053521565685268E-14, 6.439731201072062761E-15, 13.70780209626294344 ) ) ;
#20 = DIRECTION ( 'NONE',  ( 1.000000000000000000, 0.0000000000000000000, 0.0000000000000000000 ) ) ;
#21 = PERSON_AND_ORGANIZATION ( #134, #108 ) ;
#22 = ADVANCED_FACE ( 'NONE', ( #149, #204 ), #2, .T. ) ;
#23 = CLOSED_SHELL ( 'NONE', ( #4, #173, #43, #71 ) ) ;
#24 = CC_DESIGN_APPROVAL ( #235, ( #223 ) ) ;
#25 = PERSON_AND_ORGANIZATION ( #134, #108 ) ;
#26 = EDGE_LOOP ( 'NONE', ( #129 ) ) ;
#27 = PERSON_AND_ORGANIZATION ( #134, #108 ) ;
#28 = PERSON_AND_ORGANIZATION_ROLE ( 'creator' ) ;
#29 = DIRECTION ( 'NONE',  ( -3.491481338843133355E-15, 9.031770143711729009E-17, -1.000000000000000000 ) ) ;
#30 = CC_DESIGN_PERSON_AND_ORGANIZATION_ASSIGNMENT ( #25, #66, ( #3 ) ) ;
#31 = DIRECTION ( 'NONE',  ( -3.153425691349006731E-31, -1.000000000000000000, -9.031770143711729009E-17 ) ) ;
#32 = PRODUCT_DEFINITION ( 'UNKNOWN', '', #3, #9 ) ;
#33 = DIRECTION ( 'NONE',  ( -3.491481338843133355E-15, 9.031770143711729009E-17, -1.000000000000000000 ) ) ;
#34 = AXIS2_PLACEMENT_3D ( 'NONE', #217, #198, #31 ) ;
#35 = AXIS2_PLACEMENT_3D ( 'NONE', #89, #165, #54 ) ;
#36 = PERSON_AND_ORGANIZATION_ROLE ( 'design_owner' ) ;
#37 = ORIENTED_EDGE ( 'NONE', *, *, #228, .T. ) ;
#38 = CARTESIAN_POINT ( 'NONE',  ( 2.793185071074506684E-13, 1.599999999999987876, 80.00000000000000000 ) ) ;
#39 = DIRECTION ( 'NONE',  ( -3.491481338843133355E-15, -4.697858311528789447E-16, -1.000000000000000000 ) ) ;
#40 = CARTESIAN_POINT ( 'NONE',  ( 1.396592535537253145E-15, 2.163999999999998813, 0.3999999999999999112 ) ) ;
#41 = EDGE_LOOP ( 'NONE', ( #37 ) ) ;
#42 = APPROVAL_PERSON_ORGANIZATION ( #212, #104, #140 ) ;
#43 = ADVANCED_FACE ( 'NONE', ( #239, #192 ), #157, .T. ) ;
#44 = COORDINATED_UNIVERSAL_TIME_OFFSET ( 1, 0, .AHEAD. ) ;
#45 = APPROVAL_STATUS ( 'not_yet_approved' ) ;
#46 = LOCAL_TIME ( 11, 2, 45.00000000000000000, #119 ) ;
#47 = DATE_AND_TIME ( #115, #179 ) ;
#48 = PERSON_AND_ORGANIZATION_ROLE ( 'classification_officer' ) ;
#49 = DATE_TIME_ROLE ( 'creation_date' ) ;
#50 = CARTESIAN_POINT ( 'NONE',  ( 4.786053521565684006E-14, -1.238057177089366700E-15, 13.70780209626293988 ) ) ;
#51 = LOCAL_TIME ( 11, 2, 45.00000000000000000, #44 ) ;
#52 = DIRECTION ( 'NONE',  ( 3.153425691349006731E-31, 1.000000000000000000, 9.031770143711729009E-17 ) ) ;
#53 = EDGE_CURVE ( 'NONE', #152, #152, #227, .T. ) ;
#54 = DIRECTION ( 'NONE',  ( 3.153425691349006731E-31, 1.000000000000000000, 9.031770143711729009E-17 ) ) ;
#55 = DIRECTION ( 'NONE',  ( 3.491481338843133355E-15, 4.697858311528789447E-16, 1.000000000000000000 ) ) ;
#56 = EDGE_LOOP ( 'NONE', ( #222 ) ) ;
#57 =( NAMED_UNIT ( * ) PLANE_ANGLE_UNIT ( ) SI_UNIT ( $, .RADIAN. ) );
#58 = DIRECTION ( 'NONE',  ( 0.0000000000000000000, 1.000000000000000000, 0.0000000000000000000 ) ) ;
#59 = DIRECTION ( 'NONE',  ( 0.0000000000000000000, 0.0000000000000000000, 1.000000000000000000 ) ) ;
#60 = EDGE_LOOP ( 'NONE', ( #95 ) ) ;
#61 = AXIS2_PLACEMENT_3D ( 'NONE', #92, #12, #58 ) ;
#62 = LOCAL_TIME ( 11, 2, 45.00000000000000000, #139 ) ;
#63 =( NAMED_UNIT ( * ) SI_UNIT ( $, .STERADIAN. ) SOLID_ANGLE_UNIT ( ) );
#64 = AXIS2_PLACEMENT_3D ( 'NONE', #19, #55, #93 ) ;
#65 = AXIS2_PLACEMENT_3D ( 'NONE', #184, #125, #52 ) ;
#66 = PERSON_AND_ORGANIZATION_ROLE ( 'creator' ) ;
#67 = PERSON_AND_ORGANIZATION ( #134, #108 ) ;
#68 = CARTESIAN_POINT ( 'NONE',  ( 4.786053521565684006E-14, -1.238057177089366700E-15, 13.70780209626293988 ) ) ;
#69 = APPROVAL_PERSON_ORGANIZATION ( #84, #235, #5 ) ;
#70 = CYLINDRICAL_SURFACE ( 'NONE', #242, 2.163999999999995261 ) ;
#71 = ADVANCED_FACE ( 'NONE', ( #109 ), #224, .T. ) ;
#72 = CC_DESIGN_SECURITY_CLASSIFICATION ( #223, ( #3 ) ) ;
#73 = FACE_OUTER_BOUND ( 'NONE', #208, .T. ) ;
#74 = CARTESIAN_POINT ( 'NONE',  ( 4.786053521565684006E-14, 2.163999999999998369, 13.70780209626293988 ) ) ;
#75 = DIRECTION ( 'NONE',  ( 0.0000000000000000000, 1.000000000000000000, 0.0000000000000000000 ) ) ;
#76 = PERSON_AND_ORGANIZATION ( #134, #108 ) ;
#77 = CARTESIAN_POINT ( 'NONE',  ( 3.170698516736536472E-30, 4.266238577445243275E-31, 9.081241481837949820E-16 ) ) ;
#78 = CARTESIAN_POINT ( 'NONE',  ( 4.885231259955590439E-14, -1.263712492114123682E-15, 13.99185842870425134 ) ) ;
#79 = DIRECTION ( 'NONE',  ( -1.640248462723187848E-30, 1.000000000000000000, -4.697858311528789447E-16 ) ) ;
#80 = AXIS2_PLACEMENT_3D ( 'NONE', #77, #170, #153 ) ;
#81 = DIRECTION ( 'NONE',  ( 0.0000000000000000000, 1.000000000000000000, 0.0000000000000000000 ) ) ;
#82 = DATE_AND_TIME ( #197, #62 ) ;
#83 = CIRCLE ( 'NONE', #162, 2.163999999999998813 ) ;
#84 = PERSON_AND_ORGANIZATION ( #134, #108 ) ;
#85 = PRODUCT ( '321336', '321336', '', ( #194 ) ) ;
#86 = DIRECTION ( 'NONE',  ( 0.0000000000000000000, 1.000000000000000000, 0.0000000000000000000 ) ) ;
#87 = CIRCLE ( 'NONE', #196, 1.999999999999991784 ) ;
#88 = FACE_OUTER_BOUND ( 'NONE', #243, .T. ) ;
#89 = CARTESIAN_POINT ( 'NONE',  ( 0.0000000000000000000, 0.0000000000000000000, 0.0000000000000000000 ) ) ;
#90 = ORIENTED_EDGE ( 'NONE', *, *, #127, .F. ) ;
#91 = DIRECTION ( 'NONE',  ( 0.0000000000000000000, 1.000000000000000000, 0.0000000000000000000 ) ) ;
#92 = CARTESIAN_POINT ( 'NONE',  ( 2.793185071074506684E-13, -7.225416114969383207E-15, 80.00000000000000000 ) ) ;
#93 = DIRECTION ( 'NONE',  ( 1.640248462723187848E-30, -1.000000000000000000, 4.697858311528789447E-16 ) ) ;
#94 = DIRECTION ( 'NONE',  ( 1.640248462723187848E-30, -1.000000000000000000, 4.697858311528789447E-16 ) ) ;
#95 = ORIENTED_EDGE ( 'NONE', *, *, #53, .F. ) ;
#96 = AXIS2_PLACEMENT_3D ( 'NONE', #205, #59, #20 ) ;
#97 = PERSON_AND_ORGANIZATION ( #134, #108 ) ;
#98 = ORIENTED_EDGE ( 'NONE', *, *, #127, .T. ) ;
#99 = ADVANCED_FACE ( 'NONE', ( #226, #73 ), #220, .T. ) ;
#100 = CC_DESIGN_PERSON_AND_ORGANIZATION_ASSIGNMENT ( #76, #36, ( #85 ) ) ;
#101 = CARTESIAN_POINT ( 'NONE',  ( 4.885231259955590439E-14, 1.999999999999990452, 13.99185842870425134 ) ) ;
#102 = CALENDAR_DATE ( 2021, 26, 11 ) ;
#103 = PERSON_AND_ORGANIZATION_ROLE ( 'design_supplier' ) ;
#104 = APPROVAL ( #45, 'UNSPECIFIED' ) ;
#105 = CALENDAR_DATE ( 2021, 26, 11 ) ;
#106 = DIRECTION ( 'NONE',  ( -1.601974999952415001E-30, 1.000000000000000000, -4.759667577916958283E-16 ) ) ;
#107 = FACE_OUTER_BOUND ( 'NONE', #112, .T. ) ;
#108 = ORGANIZATION ( 'UNSPECIFIED', 'UNSPECIFIED', '' ) ;
#109 = FACE_OUTER_BOUND ( 'NONE', #56, .T. ) ;
#110 = CARTESIAN_POINT ( 'NONE',  ( 2.779219145719134403E-13, -7.189289034394536528E-15, 79.60000000000000853 ) ) ;
#111 = VERTEX_POINT ( 'NONE', #74 ) ;
#112 = EDGE_LOOP ( 'NONE', ( #182 ) ) ;
#113 = EDGE_LOOP ( 'NONE', ( #168 ) ) ;
#114 = CARTESIAN_POINT ( 'NONE',  ( 0.0000000000000000000, 1.933059892324149098, 0.0000000000000000000 ) ) ;
#115 = CALENDAR_DATE ( 2021, 26, 11 ) ;
#116 = ADVANCED_FACE ( 'NONE', ( #107 ), #201, .T. ) ;
#117 = AXIS2_PLACEMENT_3D ( 'NONE', #110, #33, #75 ) ;
#118 =( GEOMETRIC_REPRESENTATION_CONTEXT ( 3 ) GLOBAL_UNCERTAINTY_ASSIGNED_CONTEXT ( ( #210 ) ) GLOBAL_UNIT_ASSIGNED_CONTEXT ( ( #135, #57, #63 ) ) REPRESENTATION_CONTEXT ( 'NONE', 'WORKASPACE' ) );
#119 = COORDINATED_UNIVERSAL_TIME_OFFSET ( 1, 0, .AHEAD. ) ;
#120 = DATE_AND_TIME ( #102, #51 ) ;
#121 = CARTESIAN_POINT ( 'NONE',  ( 4.786053521565684637E-14, 6.439731201072062761E-15, 13.70780209626294166 ) ) ;
#122 = APPROVAL ( #176, 'UNSPECIFIED' ) ;
#123 = LOCAL_TIME ( 11, 2, 45.00000000000000000, #151 ) ;
#124 = DIRECTION ( 'NONE',  ( -2.847955555470969810E-30, 1.000000000000000000, -8.016282236491745993E-16 ) ) ;
#125 = DIRECTION ( 'NONE',  ( -3.491481338843133355E-15, 9.031770143711729009E-17, -1.000000000000000000 ) ) ;
#126 = ORIENTED_EDGE ( 'NONE', *, *, #167, .T. ) ;
#127 = EDGE_CURVE ( 'NONE', #14, #14, #211, .T. ) ;
#128 = CARTESIAN_POINT ( 'NONE',  ( 2.779219145719134403E-13, 1.999999999999988010, 79.60000000000000853 ) ) ;
#129 = ORIENTED_EDGE ( 'NONE', *, *, #167, .F. ) ;
#130 = CARTESIAN_POINT ( 'NONE',  ( -1.585349258368268236E-30, 1.933059892324149098, -4.540620740918974910E-16 ) ) ;
#131 = VERTEX_POINT ( 'NONE', #38 ) ;
#132 = ADVANCED_FACE ( 'NONE', ( #203 ), #236, .T. ) ;
#133 = EDGE_LOOP ( 'NONE', ( #7 ) ) ;
#134 = PERSON ( 'UNSPECIFIED', 'UNSPECIFIED', 'UNSPECIFIED', ('UNSPECIFIED'), ('UNSPECIFIED'), ('UNSPECIFIED') ) ;
#135 =( LENGTH_UNIT ( ) NAMED_UNIT ( * ) SI_UNIT ( .MILLI., .METRE. ) );
#136 = APPROVAL_PERSON_ORGANIZATION ( #97, #122, #1 ) ;
#137 = APPLICATION_PROTOCOL_DEFINITION ( 'international standard', 'config_control_design', 1994, #178 ) ;
#138 = CALENDAR_DATE ( 2021, 26, 11 ) ;
#139 = COORDINATED_UNIVERSAL_TIME_OFFSET ( 1, 0, .AHEAD. ) ;
#140 = APPROVAL_ROLE ( '' ) ;
#141 = CC_DESIGN_PERSON_AND_ORGANIZATION_ASSIGNMENT ( #67, #103, ( #3 ) ) ;
#142 = DIRECTION ( 'NONE',  ( -3.491481338843133355E-15, -4.697858311528789447E-16, -1.000000000000000000 ) ) ;
#143 = COORDINATED_UNIVERSAL_TIME_OFFSET ( 1, 0, .AHEAD. ) ;
#144 = APPLICATION_CONTEXT ( 'configuration controlled 3d designs of mechanical parts and assemblies' ) ;
#145 = DIRECTION ( 'NONE',  ( -1.640248462723187848E-30, 1.000000000000000000, -4.697858311528789447E-16 ) ) ;
#146 = CIRCLE ( 'NONE', #154, 2.163999999999999702 ) ;
#147 = DIRECTION ( 'NONE',  ( -3.491481338843133355E-15, -4.697858311528789447E-16, -1.000000000000000000 ) ) ;
#148 = MANIFOLD_SOLID_BREP ( 'Corps-Déplacer/Copier1[1]', #174 ) ;
#149 = FACE_BOUND ( 'NONE', #241, .T. ) ;
#150 = CC_DESIGN_DATE_AND_TIME_ASSIGNMENT ( #82, #49, ( #32 ) ) ;
#151 = COORDINATED_UNIVERSAL_TIME_OFFSET ( 1, 0, .AHEAD. ) ;
#152 = VERTEX_POINT ( 'NONE', #114 ) ;
#153 = DIRECTION ( 'NONE',  ( -1.640248462723187848E-30, 1.000000000000000000, -4.697858311528789447E-16 ) ) ;
#154 = AXIS2_PLACEMENT_3D ( 'NONE', #68, #166, #86 ) ;
#155 = VERTEX_POINT ( 'NONE', #225 ) ;
#156 = CARTESIAN_POINT ( 'NONE',  ( 3.170698516736536472E-30, 4.266238577445243275E-31, 9.081241481837949820E-16 ) ) ;
#157 = CONICAL_SURFACE ( 'NONE', #187, 1.933059892324149098, 0.5235987755982979275 ) ;
#158 = CC_DESIGN_APPROVAL ( #122, ( #32 ) ) ;
#159 = APPROVAL_DATE_TIME ( #47, #104 ) ;
#160 = SHAPE_DEFINITION_REPRESENTATION ( #219, #232 ) ;
#161 = CC_DESIGN_DATE_AND_TIME_ASSIGNMENT ( #120, #180, ( #223 ) ) ;
#162 = AXIS2_PLACEMENT_3D ( 'NONE', #238, #147, #106 ) ;
#163 = DIRECTION ( 'NONE',  ( -3.491481338843133355E-15, -4.697858311528789447E-16, -1.000000000000000000 ) ) ;
#164 = APPROVAL_DATE_TIME ( #216, #235 ) ;
#165 = DIRECTION ( 'NONE',  ( -3.491481338843133355E-15, 9.031770143711729009E-17, -1.000000000000000000 ) ) ;
#166 = DIRECTION ( 'NONE',  ( -3.491481338843133355E-15, 9.031770143711729009E-17, -1.000000000000000000 ) ) ;
#167 = EDGE_CURVE ( 'NONE', #111, #111, #200, .T. ) ;
#168 = ORIENTED_EDGE ( 'NONE', *, *, #209, .F. ) ;
#169 = FACE_BOUND ( 'NONE', #41, .T. ) ;
#170 = DIRECTION ( 'NONE',  ( -3.491481338843133355E-15, -4.697858311528789447E-16, -1.000000000000000000 ) ) ;
#171 = VERTEX_POINT ( 'NONE', #101 ) ;
#172 = ORIENTED_EDGE ( 'NONE', *, *, #209, .T. ) ;
#173 = ADVANCED_FACE ( 'NONE', ( #188, #10 ), #70, .T. ) ;
#174 = CLOSED_SHELL ( 'NONE', ( #116, #22, #99, #185, #132 ) ) ;
#175 = CONICAL_SURFACE ( 'NONE', #218, 2.163999999999999702, 0.5235987755982953740 ) ;
#176 = APPROVAL_STATUS ( 'not_yet_approved' ) ;
#177 = AXIS2_PLACEMENT_3D ( 'NONE', #215, #29, #186 ) ;
#178 = APPLICATION_CONTEXT ( 'configuration controlled 3d designs of mechanical parts and assemblies' ) ;
#179 = LOCAL_TIME ( 11, 2, 45.00000000000000000, #143 ) ;
#180 = DATE_TIME_ROLE ( 'classification_date' ) ;
#181 = SECURITY_CLASSIFICATION_LEVEL ( 'unclassified' ) ;
#182 = ORIENTED_EDGE ( 'NONE', *, *, #16, .F. ) ;
#183 = DATE_AND_TIME ( #138, #123 ) ;
#184 = CARTESIAN_POINT ( 'NONE',  ( 4.786053521565685268E-14, 2.163999999999998369, 13.70780209626294344 ) ) ;
#185 = ADVANCED_FACE ( 'NONE', ( #169, #88 ), #175, .T. ) ;
#186 = DIRECTION ( 'NONE',  ( 0.0000000000000000000, 1.000000000000000000, 0.0000000000000000000 ) ) ;
#187 = AXIS2_PLACEMENT_3D ( 'NONE', #156, #11, #94 ) ;
#188 = FACE_OUTER_BOUND ( 'NONE', #193, .T. ) ;
#189 = EDGE_LOOP ( 'NONE', ( #90 ) ) ;
#190 = APPLICATION_PROTOCOL_DEFINITION ( 'international standard', 'config_control_design', 1994, #144 ) ;
#191 = EDGE_CURVE ( 'NONE', #155, #155, #146, .T. ) ;
#192 = FACE_BOUND ( 'NONE', #60, .T. ) ;
#193 = EDGE_LOOP ( 'NONE', ( #126 ) ) ;
#194 = MECHANICAL_CONTEXT ( 'NONE', #178, 'mechanical' ) ;
#195 = EDGE_LOOP ( 'NONE', ( #98 ) ) ;
#196 = AXIS2_PLACEMENT_3D ( 'NONE', #78, #18, #81 ) ;
#197 = CALENDAR_DATE ( 2021, 26, 11 ) ;
#198 = DIRECTION ( 'NONE',  ( 3.491481338843133355E-15, -9.031770143711729009E-17, 1.000000000000000000 ) ) ;
#199 = CIRCLE ( 'NONE', #61, 1.599999999999994982 ) ;
#200 = CIRCLE ( 'NONE', #230, 2.163999999999991708 ) ;
#201 = PLANE ( 'NONE',  #34 ) ;
#202 = CARTESIAN_POINT ( 'NONE',  ( 0.0000000000000000000, 0.0000000000000000000, 0.0000000000000000000 ) ) ;
#203 = FACE_OUTER_BOUND ( 'NONE', #133, .T. ) ;
#204 = FACE_OUTER_BOUND ( 'NONE', #189, .T. ) ;
#205 = CARTESIAN_POINT ( 'NONE',  ( 0.0000000000000000000, 0.0000000000000000000, 0.0000000000000000000 ) ) ;
#206 = FACE_OUTER_BOUND ( 'NONE', #26, .T. ) ;
#207 = PLANE ( 'NONE',  #64 ) ;
#208 = EDGE_LOOP ( 'NONE', ( #237 ) ) ;
#209 = EDGE_CURVE ( 'NONE', #221, #221, #83, .T. ) ;
#210 = UNCERTAINTY_MEASURE_WITH_UNIT (LENGTH_MEASURE( 1.000000000000000082E-05 ), #135, 'distance_accuracy_value', 'NONE');
#211 = CIRCLE ( 'NONE', #177, 1.999999999999995337 ) ;
#212 = PERSON_AND_ORGANIZATION ( #134, #108 ) ;
#213 = ORIENTED_EDGE ( 'NONE', *, *, #16, .T. ) ;
#214 = AXIS2_PLACEMENT_3D ( 'NONE', #130, #39, #79 ) ;
#215 = CARTESIAN_POINT ( 'NONE',  ( 2.779219145719134403E-13, -7.189289034394536528E-15, 79.60000000000000853 ) ) ;
#216 = DATE_AND_TIME ( #105, #46 ) ;
#217 = CARTESIAN_POINT ( 'NONE',  ( 2.793185071074506684E-13, -7.225416114969383207E-15, 80.00000000000000000 ) ) ;
#218 = AXIS2_PLACEMENT_3D ( 'NONE', #50, #8, #91 ) ;
#219 = PRODUCT_DEFINITION_SHAPE ( 'NONE', 'NONE',  #32 ) ;
#220 = CYLINDRICAL_SURFACE ( 'NONE', #35, 1.999999999999993561 ) ;
#221 = VERTEX_POINT ( 'NONE', #40 ) ;
#222 = ORIENTED_EDGE ( 'NONE', *, *, #53, .T. ) ;
#223 = SECURITY_CLASSIFICATION ( '', '', #181 ) ;
#224 = PLANE ( 'NONE',  #214 ) ;
#225 = CARTESIAN_POINT ( 'NONE',  ( 4.786053521565684006E-14, 2.163999999999998369, 13.70780209626293988 ) ) ;
#226 = FACE_OUTER_BOUND ( 'NONE', #195, .T. ) ;
#227 = CIRCLE ( 'NONE', #80, 1.933059892324149098 ) ;
#228 = EDGE_CURVE ( 'NONE', #171, #171, #87, .T. ) ;
#229 = MANIFOLD_SOLID_BREP ( 'Corps-Déplacer/Copier1[2]', #23 ) ;
#230 = AXIS2_PLACEMENT_3D ( 'NONE', #121, #163, #124 ) ;
#231 = APPROVAL_STATUS ( 'not_yet_approved' ) ;
#232 = ADVANCED_BREP_SHAPE_REPRESENTATION ( '321336', ( #148, #229, #96 ), #118 ) ;
#233 = APPROVAL_DATE_TIME ( #183, #122 ) ;
#234 = CC_DESIGN_PERSON_AND_ORGANIZATION_ASSIGNMENT ( #21, #28, ( #32 ) ) ;
#235 = APPROVAL ( #231, 'UNSPECIFIED' ) ;
#236 = PLANE ( 'NONE',  #65 ) ;
#237 = ORIENTED_EDGE ( 'NONE', *, *, #228, .F. ) ;
#238 = CARTESIAN_POINT ( 'NONE',  ( 1.396592535537256498E-15, 1.879143324611520413E-16, 0.4000000000000009659 ) ) ;
#239 = FACE_OUTER_BOUND ( 'NONE', #15, .T. ) ;
#240 = ORIENTED_EDGE ( 'NONE', *, *, #191, .F. ) ;
#241 = EDGE_LOOP ( 'NONE', ( #213 ) ) ;
#242 = AXIS2_PLACEMENT_3D ( 'NONE', #202, #142, #145 ) ;
#243 = EDGE_LOOP ( 'NONE', ( #240 ) ) ;
ENDSEC;
END-ISO-10303-21;
