ISO-10303-21;
HEADER;
FILE_DESCRIPTION (( 'STEP AP203' ),
    '1' );
FILE_NAME ('321335.step',
    '2021-11-26T10:02:45',
    ( '' ),
    ( '' ),
    'SwSTEP 2.0',
    'SolidWorks 2019',
    '' );
FILE_SCHEMA (( 'CONFIG_CONTROL_DESIGN' ));
ENDSEC;

DATA;
#1 = ADVANCED_FACE ( 'NONE', ( #90, #56 ), #92, .T. ) ;
#2 = AXIS2_PLACEMENT_3D ( 'NONE', #135, #211, #63 ) ;
#3 = FACE_OUTER_BOUND ( 'NONE', #217, .T. ) ;
#4 = CC_DESIGN_DATE_AND_TIME_ASSIGNMENT ( #38, #186, ( #208 ) ) ;
#5 = FACE_OUTER_BOUND ( 'NONE', #36, .T. ) ;
#6 = DIRECTION ( 'NONE',  ( 3.491481338843133355E-15, -9.031770143711729009E-17, 1.000000000000000000 ) ) ;
#7 = AXIS2_PLACEMENT_3D ( 'NONE', #25, #214, #234 ) ;
#8 = FACE_OUTER_BOUND ( 'NONE', #165, .T. ) ;
#9 = DIRECTION ( 'NONE',  ( 0.0000000000000000000, 1.000000000000000000, 0.0000000000000000000 ) ) ;
#10 = CARTESIAN_POINT ( 'NONE',  ( 2.779219145719134403E-13, 1.999999999999988010, 79.60000000000000853 ) ) ;
#11 = PERSON_AND_ORGANIZATION ( #187, #225 ) ;
#12 = DIRECTION ( 'NONE',  ( -3.491481338843133355E-15, 9.031770143711729009E-17, -1.000000000000000000 ) ) ;
#13 = AXIS2_PLACEMENT_3D ( 'NONE', #138, #231, #27 ) ;
#14 = PERSON_AND_ORGANIZATION ( #187, #225 ) ;
#15 = ORIENTED_EDGE ( 'NONE', *, *, #101, .F. ) ;
#16 = APPROVAL ( #143, 'UNSPECIFIED' ) ;
#17 = COORDINATED_UNIVERSAL_TIME_OFFSET ( 1, 0, .AHEAD. ) ;
#18 = CARTESIAN_POINT ( 'NONE',  ( 1.396592535537256498E-15, 1.877338306681814040E-16, 0.4000000000000009659 ) ) ;
#19 = DATE_TIME_ROLE ( 'creation_date' ) ;
#20 = AXIS2_PLACEMENT_3D ( 'NONE', #33, #112, #37 ) ;
#21 = EDGE_CURVE ( 'NONE', #29, #29, #193, .T. ) ;
#22 = EDGE_CURVE ( 'NONE', #83, #83, #113, .T. ) ;
#23 = AXIS2_PLACEMENT_3D ( 'NONE', #18, #30, #158 ) ;
#24 = DIRECTION ( 'NONE',  ( 3.491481338843133355E-15, 4.693345766704524500E-16, 1.000000000000000000 ) ) ;
#25 = CARTESIAN_POINT ( 'NONE',  ( -1.579729763103184380E-30, 1.928059892324147873, -4.524525866796160290E-16 ) ) ;
#26 = FACE_BOUND ( 'NONE', #73, .T. ) ;
#27 = DIRECTION ( 'NONE',  ( -2.854551098674931993E-30, 1.000000000000000000, -8.034847040189039802E-16 ) ) ;
#28 = CLOSED_SHELL ( 'NONE', ( #129, #79, #213, #1, #62 ) ) ;
#29 = VERTEX_POINT ( 'NONE', #100 ) ;
#30 = DIRECTION ( 'NONE',  ( -3.491481338843133355E-15, -4.693345766704524500E-16, -1.000000000000000000 ) ) ;
#31 = MECHANICAL_CONTEXT ( 'NONE', #137, 'mechanical' ) ;
#32 = FACE_BOUND ( 'NONE', #87, .T. ) ;
#33 = CARTESIAN_POINT ( 'NONE',  ( 0.0000000000000000000, 0.0000000000000000000, 0.0000000000000000000 ) ) ;
#34 = FACE_OUTER_BOUND ( 'NONE', #212, .T. ) ;
#35 = DATE_AND_TIME ( #70, #152 ) ;
#36 = EDGE_LOOP ( 'NONE', ( #224 ) ) ;
#37 = DIRECTION ( 'NONE',  ( 1.000000000000000000, 0.0000000000000000000, 0.0000000000000000000 ) ) ;
#38 = DATE_AND_TIME ( #164, #102 ) ;
#39 = CIRCLE ( 'NONE', #204, 1.928059892324147873 ) ;
#40 = APPROVAL_PERSON_ORGANIZATION ( #148, #52, #203 ) ;
#41 = ADVANCED_FACE ( 'NONE', ( #34 ), #54, .T. ) ;
#42 = DIRECTION ( 'NONE',  ( -3.491481338843133355E-15, -4.693345766704524500E-16, -1.000000000000000000 ) ) ;
#43 = PRODUCT_DEFINITION_FORMATION_WITH_SPECIFIED_SOURCE ( 'ANY', '', #114, .NOT_KNOWN. ) ;
#44 = CARTESIAN_POINT ( 'NONE',  ( 4.789077233101961510E-14, -1.238839351327926194E-15, 13.71646235030078387 ) ) ;
#45 = EDGE_LOOP ( 'NONE', ( #196 ) ) ;
#46 = FACE_OUTER_BOUND ( 'NONE', #202, .T. ) ;
#47 = FACE_OUTER_BOUND ( 'NONE', #179, .T. ) ;
#48 = CYLINDRICAL_SURFACE ( 'NONE', #194, 2.158999999999994479 ) ;
#49 = AXIS2_PLACEMENT_3D ( 'NONE', #69, #220, #93 ) ;
#50 = EDGE_LOOP ( 'NONE', ( #126 ) ) ;
#51 = DIRECTION ( 'NONE',  ( -3.491481338843133355E-15, 9.031770143711729009E-17, -1.000000000000000000 ) ) ;
#52 = APPROVAL ( #241, 'UNSPECIFIED' ) ;
#53 = PERSON_AND_ORGANIZATION ( #187, #225 ) ;
#54 = PLANE ( 'NONE',  #49 ) ;
#55 = SHAPE_DEFINITION_REPRESENTATION ( #77, #235 ) ;
#56 = FACE_OUTER_BOUND ( 'NONE', #141, .T. ) ;
#57 = APPROVAL_PERSON_ORGANIZATION ( #185, #16, #59 ) ;
#58 = PERSON_AND_ORGANIZATION ( #187, #225 ) ;
#59 = APPROVAL_ROLE ( '' ) ;
#60 = CC_DESIGN_PERSON_AND_ORGANIZATION_ASSIGNMENT ( #243, #106, ( #114 ) ) ;
#61 = CIRCLE ( 'NONE', #13, 2.158999999999991815 ) ;
#62 = ADVANCED_FACE ( 'NONE', ( #198 ), #180, .T. ) ;
#63 = DIRECTION ( 'NONE',  ( 0.0000000000000000000, 1.000000000000000000, 0.0000000000000000000 ) ) ;
#64 = CARTESIAN_POINT ( 'NONE',  ( 4.885231259955590439E-14, 1.999999999999990452, 13.99185842870425134 ) ) ;
#65 = AXIS2_PLACEMENT_3D ( 'NONE', #71, #51, #128 ) ;
#66 = VERTEX_POINT ( 'NONE', #120 ) ;
#67 = CC_DESIGN_PERSON_AND_ORGANIZATION_ASSIGNMENT ( #53, #199, ( #43 ) ) ;
#68 = DIRECTION ( 'NONE',  ( 0.0000000000000000000, 1.000000000000000000, 0.0000000000000000000 ) ) ;
#69 = CARTESIAN_POINT ( 'NONE',  ( 4.789077233101961510E-14, 6.437610050594618195E-15, 13.71646235030078564 ) ) ;
#70 = CALENDAR_DATE ( 2021, 26, 11 ) ;
#71 = CARTESIAN_POINT ( 'NONE',  ( 4.789077233101961510E-14, 2.158999999999998032, 13.71646235030078564 ) ) ;
#72 = APPLICATION_PROTOCOL_DEFINITION ( 'international standard', 'config_control_design', 1994, #137 ) ;
#73 = EDGE_LOOP ( 'NONE', ( #75 ) ) ;
#74 = DATE_AND_TIME ( #159, #175 ) ;
#75 = ORIENTED_EDGE ( 'NONE', *, *, #205, .F. ) ;
#76 = MANIFOLD_SOLID_BREP ( 'Corps-Déplacer/Copier1[2]', #167 ) ;
#77 = PRODUCT_DEFINITION_SHAPE ( 'NONE', 'NONE',  #169 ) ;
#78 = CC_DESIGN_APPROVAL ( #52, ( #43 ) ) ;
#79 = ADVANCED_FACE ( 'NONE', ( #32, #107 ), #237, .T. ) ;
#80 = MANIFOLD_SOLID_BREP ( 'Corps-Déplacer/Copier1[1]', #28 ) ;
#81 = ADVANCED_FACE ( 'NONE', ( #8 ), #192, .T. ) ;
#82 = VERTEX_POINT ( 'NONE', #64 ) ;
#83 = VERTEX_POINT ( 'NONE', #104 ) ;
#84 = CC_DESIGN_PERSON_AND_ORGANIZATION_ASSIGNMENT ( #58, #219, ( #43 ) ) ;
#85 = CC_DESIGN_APPROVAL ( #197, ( #208 ) ) ;
#86 = DIRECTION ( 'NONE',  ( -3.491481338843133355E-15, 9.031770143711729009E-17, -1.000000000000000000 ) ) ;
#87 = EDGE_LOOP ( 'NONE', ( #236 ) ) ;
#88 = PERSON_AND_ORGANIZATION ( #187, #225 ) ;
#89 = EDGE_CURVE ( 'NONE', #178, #178, #201, .T. ) ;
#90 = FACE_BOUND ( 'NONE', #50, .T. ) ;
#91 = COORDINATED_UNIVERSAL_TIME_OFFSET ( 1, 0, .AHEAD. ) ;
#92 = CONICAL_SURFACE ( 'NONE', #134, 2.158999999999999364, 0.5235987755982931535 ) ;
#93 = DIRECTION ( 'NONE',  ( 1.638672916118726618E-30, -1.000000000000000000, 4.693345766704524500E-16 ) ) ;
#94 = COORDINATED_UNIVERSAL_TIME_OFFSET ( 1, 0, .AHEAD. ) ;
#95 = ORIENTED_EDGE ( 'NONE', *, *, #205, .T. ) ;
#96 = PERSON_AND_ORGANIZATION_ROLE ( 'classification_officer' ) ;
#97 = CALENDAR_DATE ( 2021, 26, 11 ) ;
#98 = ADVANCED_FACE ( 'NONE', ( #139, #209 ), #48, .T. ) ;
#99 = CARTESIAN_POINT ( 'NONE',  ( 4.885231259955590439E-14, -1.263712492114123682E-15, 13.99185842870425134 ) ) ;
#100 = CARTESIAN_POINT ( 'NONE',  ( 1.396592535537253145E-15, 2.158999999999997588, 0.3999999999999999112 ) ) ;
#101 = EDGE_CURVE ( 'NONE', #153, #153, #61, .T. ) ;
#102 = LOCAL_TIME ( 11, 2, 45.00000000000000000, #94 ) ;
#103 = DIRECTION ( 'NONE',  ( -3.491481338843133355E-15, 9.031770143711729009E-17, -1.000000000000000000 ) ) ;
#104 = CARTESIAN_POINT ( 'NONE',  ( 2.793185071074506684E-13, 1.599999999999987876, 80.00000000000000000 ) ) ;
#105 = EDGE_LOOP ( 'NONE', ( #163 ) ) ;
#106 = PERSON_AND_ORGANIZATION_ROLE ( 'design_owner' ) ;
#107 = FACE_OUTER_BOUND ( 'NONE', #45, .T. ) ;
#108 = CALENDAR_DATE ( 2021, 26, 11 ) ;
#109 = ORIENTED_EDGE ( 'NONE', *, *, #146, .F. ) ;
#110 = DATE_AND_TIME ( #108, #181 ) ;
#111 = EDGE_LOOP ( 'NONE', ( #145 ) ) ;
#112 = DIRECTION ( 'NONE',  ( 0.0000000000000000000, 0.0000000000000000000, 1.000000000000000000 ) ) ;
#113 = CIRCLE ( 'NONE', #229, 1.599999999999994982 ) ;
#114 = PRODUCT ( '321335', '321335', '', ( #31 ) ) ;
#115 = AXIS2_PLACEMENT_3D ( 'NONE', #99, #173, #140 ) ;
#116 = DIRECTION ( 'NONE',  ( -3.153425691349006731E-31, -1.000000000000000000, -9.031770143711729009E-17 ) ) ;
#117 = AXIS2_PLACEMENT_3D ( 'NONE', #44, #103, #154 ) ;
#118 = DESIGN_CONTEXT ( 'detailed design', #207, 'design' ) ;
#119 = DIRECTION ( 'NONE',  ( -3.491481338843133355E-15, -4.693345766704524500E-16, -1.000000000000000000 ) ) ;
#120 = CARTESIAN_POINT ( 'NONE',  ( -6.842277657836020854E-46, 1.928059892324147873, 0.0000000000000000000 ) ) ;
#121 = DIRECTION ( 'NONE',  ( -1.638672916118726618E-30, 1.000000000000000000, -4.693345766704524500E-16 ) ) ;
#122 = CC_DESIGN_APPROVAL ( #16, ( #169 ) ) ;
#123 = CARTESIAN_POINT ( 'NONE',  ( 2.793185071074506684E-13, -7.225416114969383207E-15, 80.00000000000000000 ) ) ;
#124 = ORIENTED_EDGE ( 'NONE', *, *, #21, .T. ) ;
#125 = APPROVAL_DATE_TIME ( #35, #16 ) ;
#126 = ORIENTED_EDGE ( 'NONE', *, *, #146, .T. ) ;
#127 = COORDINATED_UNIVERSAL_TIME_OFFSET ( 1, 0, .AHEAD. ) ;
#128 = DIRECTION ( 'NONE',  ( 3.153425691349006731E-31, 1.000000000000000000, 9.031770143711729009E-17 ) ) ;
#129 = ADVANCED_FACE ( 'NONE', ( #5 ), #155, .T. ) ;
#130 = AXIS2_PLACEMENT_3D ( 'NONE', #123, #6, #116 ) ;
#131 = DIRECTION ( 'NONE',  ( -3.491481338843133355E-15, 9.031770143711729009E-17, -1.000000000000000000 ) ) ;
#132 = APPROVAL_ROLE ( '' ) ;
#133 = APPLICATION_PROTOCOL_DEFINITION ( 'international standard', 'config_control_design', 1994, #207 ) ;
#134 = AXIS2_PLACEMENT_3D ( 'NONE', #184, #131, #160 ) ;
#135 = CARTESIAN_POINT ( 'NONE',  ( 2.779219145719134403E-13, -7.189289034394536528E-15, 79.60000000000000853 ) ) ;
#136 = VERTEX_POINT ( 'NONE', #230 ) ;
#137 = APPLICATION_CONTEXT ( 'configuration controlled 3d designs of mechanical parts and assemblies' ) ;
#138 = CARTESIAN_POINT ( 'NONE',  ( 4.789077233101961510E-14, 6.437610050594618195E-15, 13.71646235030078564 ) ) ;
#139 = FACE_OUTER_BOUND ( 'NONE', #240, .T. ) ;
#140 = DIRECTION ( 'NONE',  ( 0.0000000000000000000, 1.000000000000000000, 0.0000000000000000000 ) ) ;
#141 = EDGE_LOOP ( 'NONE', ( #200 ) ) ;
#142 = AXIS2_PLACEMENT_3D ( 'NONE', #191, #86, #157 ) ;
#143 = APPROVAL_STATUS ( 'not_yet_approved' ) ;
#144 = COORDINATED_UNIVERSAL_TIME_OFFSET ( 1, 0, .AHEAD. ) ;
#145 = ORIENTED_EDGE ( 'NONE', *, *, #21, .F. ) ;
#146 = EDGE_CURVE ( 'NONE', #82, #82, #171, .T. ) ;
#147 = ORIENTED_EDGE ( 'NONE', *, *, #89, .T. ) ;
#148 = PERSON_AND_ORGANIZATION ( #187, #225 ) ;
#149 = CONICAL_SURFACE ( 'NONE', #190, 1.928059892324147873, 0.5235987755982979275 ) ;
#150 = SECURITY_CLASSIFICATION_LEVEL ( 'unclassified' ) ;
#151 = EDGE_CURVE ( 'NONE', #136, #136, #168, .T. ) ;
#152 = LOCAL_TIME ( 11, 2, 45.00000000000000000, #127 ) ;
#153 = VERTEX_POINT ( 'NONE', #232 ) ;
#154 = DIRECTION ( 'NONE',  ( 0.0000000000000000000, 1.000000000000000000, 0.0000000000000000000 ) ) ;
#155 = PLANE ( 'NONE',  #130 ) ;
#156 = APPROVAL_PERSON_ORGANIZATION ( #88, #197, #132 ) ;
#157 = DIRECTION ( 'NONE',  ( 3.153425691349006731E-31, 1.000000000000000000, 9.031770143711729009E-17 ) ) ;
#158 = DIRECTION ( 'NONE',  ( -1.605684993004645064E-30, 1.000000000000000000, -4.770690430112229410E-16 ) ) ;
#159 = CALENDAR_DATE ( 2021, 26, 11 ) ;
#160 = DIRECTION ( 'NONE',  ( 0.0000000000000000000, 1.000000000000000000, 0.0000000000000000000 ) ) ;
#161 =( GEOMETRIC_REPRESENTATION_CONTEXT ( 3 ) GLOBAL_UNCERTAINTY_ASSIGNED_CONTEXT ( ( #210 ) ) GLOBAL_UNIT_ASSIGNED_CONTEXT ( ( #174, #233, #166 ) ) REPRESENTATION_CONTEXT ( 'NONE', 'WORKASPACE' ) );
#162 = DATE_AND_TIME ( #97, #188 ) ;
#163 = ORIENTED_EDGE ( 'NONE', *, *, #151, .T. ) ;
#164 = CALENDAR_DATE ( 2021, 26, 11 ) ;
#165 = EDGE_LOOP ( 'NONE', ( #95 ) ) ;
#166 =( NAMED_UNIT ( * ) SI_UNIT ( $, .STERADIAN. ) SOLID_ANGLE_UNIT ( ) );
#167 = CLOSED_SHELL ( 'NONE', ( #41, #98, #206, #81 ) ) ;
#168 = CIRCLE ( 'NONE', #117, 2.158999999999999364 ) ;
#169 = PRODUCT_DEFINITION ( 'UNKNOWN', '', #43, #118 ) ;
#170 = PRODUCT_RELATED_PRODUCT_CATEGORY ( 'detail', '', ( #114 ) ) ;
#171 = CIRCLE ( 'NONE', #115, 1.999999999999991784 ) ;
#172 = DIRECTION ( 'NONE',  ( 1.638672916118726968E-30, -1.000000000000000000, 4.693345766704524500E-16 ) ) ;
#173 = DIRECTION ( 'NONE',  ( -3.491481338843133355E-15, 9.031770143711729009E-17, -1.000000000000000000 ) ) ;
#174 =( LENGTH_UNIT ( ) NAMED_UNIT ( * ) SI_UNIT ( .MILLI., .METRE. ) );
#175 = LOCAL_TIME ( 11, 2, 45.00000000000000000, #17 ) ;
#176 = CARTESIAN_POINT ( 'NONE',  ( 3.159459526206368760E-30, 4.247032864654575622E-31, 9.049051733592320580E-16 ) ) ;
#177 = DIRECTION ( 'NONE',  ( -3.491481338843133355E-15, 9.031770143711729009E-17, -1.000000000000000000 ) ) ;
#178 = VERTEX_POINT ( 'NONE', #10 ) ;
#179 = EDGE_LOOP ( 'NONE', ( #109 ) ) ;
#180 = PLANE ( 'NONE',  #65 ) ;
#181 = LOCAL_TIME ( 11, 2, 45.00000000000000000, #144 ) ;
#182 = APPROVAL_DATE_TIME ( #110, #52 ) ;
#183 = CARTESIAN_POINT ( 'NONE',  ( 2.779219145719134403E-13, -7.189289034394536528E-15, 79.60000000000000853 ) ) ;
#184 = CARTESIAN_POINT ( 'NONE',  ( 4.789077233101961510E-14, -1.238839351327926194E-15, 13.71646235030078387 ) ) ;
#185 = PERSON_AND_ORGANIZATION ( #187, #225 ) ;
#186 = DATE_TIME_ROLE ( 'classification_date' ) ;
#187 = PERSON ( 'UNSPECIFIED', 'UNSPECIFIED', 'UNSPECIFIED', ('UNSPECIFIED'), ('UNSPECIFIED'), ('UNSPECIFIED') ) ;
#188 = LOCAL_TIME ( 11, 2, 45.00000000000000000, #91 ) ;
#189 = CARTESIAN_POINT ( 'NONE',  ( 0.0000000000000000000, 0.0000000000000000000, 0.0000000000000000000 ) ) ;
#190 = AXIS2_PLACEMENT_3D ( 'NONE', #176, #24, #172 ) ;
#191 = CARTESIAN_POINT ( 'NONE',  ( 0.0000000000000000000, 0.0000000000000000000, 0.0000000000000000000 ) ) ;
#192 = PLANE ( 'NONE',  #7 ) ;
#193 = CIRCLE ( 'NONE', #23, 2.158999999999997588 ) ;
#194 = AXIS2_PLACEMENT_3D ( 'NONE', #189, #42, #121 ) ;
#195 = CYLINDRICAL_SURFACE ( 'NONE', #142, 1.999999999999993561 ) ;
#196 = ORIENTED_EDGE ( 'NONE', *, *, #89, .F. ) ;
#197 = APPROVAL ( #239, 'UNSPECIFIED' ) ;
#198 = FACE_OUTER_BOUND ( 'NONE', #105, .T. ) ;
#199 = PERSON_AND_ORGANIZATION_ROLE ( 'creator' ) ;
#200 = ORIENTED_EDGE ( 'NONE', *, *, #151, .F. ) ;
#201 = CIRCLE ( 'NONE', #2, 1.999999999999995337 ) ;
#202 = EDGE_LOOP ( 'NONE', ( #124 ) ) ;
#203 = APPROVAL_ROLE ( '' ) ;
#204 = AXIS2_PLACEMENT_3D ( 'NONE', #216, #119, #215 ) ;
#205 = EDGE_CURVE ( 'NONE', #66, #66, #39, .T. ) ;
#206 = ADVANCED_FACE ( 'NONE', ( #46, #26 ), #149, .T. ) ;
#207 = APPLICATION_CONTEXT ( 'configuration controlled 3d designs of mechanical parts and assemblies' ) ;
#208 = SECURITY_CLASSIFICATION ( '', '', #150 ) ;
#209 = FACE_OUTER_BOUND ( 'NONE', #111, .T. ) ;
#210 = UNCERTAINTY_MEASURE_WITH_UNIT (LENGTH_MEASURE( 1.000000000000000082E-05 ), #174, 'distance_accuracy_value', 'NONE');
#211 = DIRECTION ( 'NONE',  ( -3.491481338843133355E-15, 9.031770143711729009E-17, -1.000000000000000000 ) ) ;
#212 = EDGE_LOOP ( 'NONE', ( #15 ) ) ;
#213 = ADVANCED_FACE ( 'NONE', ( #3, #47 ), #195, .T. ) ;
#214 = DIRECTION ( 'NONE',  ( -3.491481338843133355E-15, -4.693345766704524500E-16, -1.000000000000000000 ) ) ;
#215 = DIRECTION ( 'NONE',  ( -1.638672916118726618E-30, 1.000000000000000000, -4.693345766704524500E-16 ) ) ;
#216 = CARTESIAN_POINT ( 'NONE',  ( 3.159459526206368760E-30, 4.247032864654575622E-31, 9.049051733592320580E-16 ) ) ;
#217 = EDGE_LOOP ( 'NONE', ( #147 ) ) ;
#218 = CC_DESIGN_DATE_AND_TIME_ASSIGNMENT ( #162, #19, ( #169 ) ) ;
#219 = PERSON_AND_ORGANIZATION_ROLE ( 'design_supplier' ) ;
#220 = DIRECTION ( 'NONE',  ( 3.491481338843133355E-15, 4.693345766704524500E-16, 1.000000000000000000 ) ) ;
#221 = PERSON_AND_ORGANIZATION_ROLE ( 'creator' ) ;
#222 = CARTESIAN_POINT ( 'NONE',  ( 2.793185071074506684E-13, -7.225416114969383207E-15, 80.00000000000000000 ) ) ;
#223 = APPROVAL_DATE_TIME ( #74, #197 ) ;
#224 = ORIENTED_EDGE ( 'NONE', *, *, #22, .F. ) ;
#225 = ORGANIZATION ( 'UNSPECIFIED', 'UNSPECIFIED', '' ) ;
#226 = CC_DESIGN_PERSON_AND_ORGANIZATION_ASSIGNMENT ( #14, #96, ( #208 ) ) ;
#227 = CC_DESIGN_PERSON_AND_ORGANIZATION_ASSIGNMENT ( #11, #221, ( #169 ) ) ;
#228 = AXIS2_PLACEMENT_3D ( 'NONE', #183, #12, #68 ) ;
#229 = AXIS2_PLACEMENT_3D ( 'NONE', #222, #177, #9 ) ;
#230 = CARTESIAN_POINT ( 'NONE',  ( 4.789077233101961510E-14, 2.158999999999998032, 13.71646235030078387 ) ) ;
#231 = DIRECTION ( 'NONE',  ( -3.491481338843133355E-15, -4.693345766704524500E-16, -1.000000000000000000 ) ) ;
#232 = CARTESIAN_POINT ( 'NONE',  ( 4.789077233101961510E-14, 2.158999999999998032, 13.71646235030078387 ) ) ;
#233 =( NAMED_UNIT ( * ) PLANE_ANGLE_UNIT ( ) SI_UNIT ( $, .RADIAN. ) );
#234 = DIRECTION ( 'NONE',  ( -1.638672916118726618E-30, 1.000000000000000000, -4.693345766704524500E-16 ) ) ;
#235 = ADVANCED_BREP_SHAPE_REPRESENTATION ( '321335', ( #80, #76, #20 ), #161 ) ;
#236 = ORIENTED_EDGE ( 'NONE', *, *, #22, .T. ) ;
#237 = CONICAL_SURFACE ( 'NONE', #228, 1.999999999999995337, 0.7853981633974516097 ) ;
#238 = ORIENTED_EDGE ( 'NONE', *, *, #101, .T. ) ;
#239 = APPROVAL_STATUS ( 'not_yet_approved' ) ;
#240 = EDGE_LOOP ( 'NONE', ( #238 ) ) ;
#241 = APPROVAL_STATUS ( 'not_yet_approved' ) ;
#242 = CC_DESIGN_SECURITY_CLASSIFICATION ( #208, ( #43 ) ) ;
#243 = PERSON_AND_ORGANIZATION ( #187, #225 ) ;
ENDSEC;
END-ISO-10303-21;
